Brood Herman - Saturday Night Chords & Tabs

 

Saturday Night Chords & Tabs

Brood Herman Chords & Tabs

Version: 1 Type: Tab 0 ratings
1 star 2 stars 3 stars 4 stars 5 stars
comments

Saturday Night Tab

   
HERMAN BROOD Saturday Night (from Slipr:tsz, 1978)

by Michiel Hautus, 1 January 2001

  x=percussionstrike 
  h=hammer-on
  ~=vibrato
  
Mainriff (bass D pedal)

  D5/A  F5/C     G5/D  D5/A

E --------------|--------------|
B 3-----6-------|8-----3-------|
G 2-----5-------|7-----2-------|       
D --000-----000-|--000-----000-|
A --------------|--------------|
E --------------|--------------|

Mainriff with transition to chorus

E --------------|--------------------|
B 3-----6-------|8-----3-------------|
G 2-----5-------|7-----2-------------|       
D --000-----000-|--000---3-2-1-0-----|
A --------------|----------------3-2-|
E --------------|--------------------|

Chorus guitar

  A5    Am7/C    D/F#  A5
[ Tab from: http://www.guitartabs.cc/tabs/b/brood_herman/saturday_night_tab.html ]
E --------------|--------------|
B ------5-------|--------------|
G 2-----5-------|------2-------|
D 2-----5-------|4-----2-------|
A 0---0-0-------|5---0-0-------|
E --------------|--------------|

Chorus bass

G --------------|------------------|
D ------5---4h5-|4-----------------|
A 0---x---------|----x-0-----------|
E --------------|---------0-3--3-5~|

Solo (search out for yourself!, sorry)/basslines:

1 x: E - D - G - D
3 x: D - F - G - D

Outro (bass plays basic notes), let chords ring

  Dsus2          Csus2          Bm

E --------------|--------------|--------------|--------------|
B ------5-------|------3-------|------3-------|--------------|
G ----7----7----|----5----5----|----4----4----|--------------|
D --7--------7--|--5-----------|--4--------4--|--------------|
A 5-------------|3-------------|2-------------|--------------|
E --------------|--------------|--------------|-6~-5~-3~-1~--|

More tabs (Black Sabbath, Rollins Band, Kiss, Paradise Lost, Motörhead, Ilse Delange):
http://ourworld-top.cs.com/HAUTUS/index.htm
Comments