Bronx - White Tar Chords & Tabs

 

White Tar Chords & Tabs

Bronx Chords & Tabs

Version: 1 Type: Tab 0 ratings
1 star 2 stars 3 stars 4 stars 5 stars
comments

White Tar Tab

   
white tar by the bronx
tab by bigjim

intro
                  (1st time only i think)
e-----3----I-------------
b-----3-3-I-------------
g--2-0-2-I--------------
d--2-0-0-I------0300-
a--0-x----I-03---------
e----3----I--------------

verese riff1

e----------------------------------------------------------
b----------------------------------------------------------
g-----------------------------55--------------------------
d-22-202-202-22-022-55-555555------0300--
a-00-000-000-00-000-33-555555-03----------
e---------------------------------333333--------------

verse riff2
[ Tab from: http://www.guitartabs.cc/tabs/b/bronx/white_tar_tab.html ]
e---------------------------------3-------
b---------------------------------3-333-
g-2222-2222-2222-2222-0-222-
d-2222-2222-2222-2222-0-000-
a-0000-0000-0000-0000-x-------
e---------------------------------3-------

riff3

e-14-14-14-14-17-17-17-17-15-15-15-15-17-17-17--
b-14-14-14-14-14-14-14-14-14-14-14-14--14-14-14--
g-14-14-14-14-14-14-14-14-14-14-14-14-14-14-14--
d-14-14-14-14-14-14-14-14--14-14-14-14-14-14-14--
a-----------------------------------------------------------------------
e-----------------------------------------------------------------------

e-----------------------------------------
b-15-15-15-15-17-17-17-17-etc
g-14-14-14-14-14-14-14-14----
d--14-14-14-14-14-14-14-14--
a--------------------------------------
e--------------------------------------

that all the riffs you souled be able to work out wear they all go you self
its a pretty simple song
Comments