Bronx - Heart Attack American Chords & Tabs

 

Heart Attack American Chords & Tabs

Bronx Chords & Tabs

Version: 1 Type: Tab 0 ratings
1 star 2 stars 3 stars 4 stars 5 stars
comments

Heart Attack American Tab

   
ARTIST: The Bronx
TITLE: Heart Attack American
ALBUM: The Bronx
TABBED BY: kryptonite22
TUNING: Standard (E A D G B E)
NOTES: Quite simple, and fun to play.

INTRO
e|----------------------|-----------------------|
B|----------------------|-----------------------|
G|----------------------|-----------------------|
D|----------------------|-----------------------|
A|--000--000--000--3h5--|--666666666/5-3p0-3h5--|
E|-3---3----3----3------|-----------------------|

VERSE
e|----------------|
B|----------------|
G|--22222222--55--|
D|--22222222--55--|
A|--00000000--33--|
E|----------------| played three times, then on the 4th time...

e|---------------|
B|---------------|
G|--77777777777--|
D|--77777777777--|
A|--55555555555--|
E|---------------|
[ Tab from: http://www.guitartabs.cc/tabs/b/bronx/heart_attack_american_tab.html ]
CHORUS
e|-------------------------|
B|-------------------------|
G|--------5-------5-77777--|
D|--77777-5-55555-5-77777--|
A|--77777-3-55555-3-55555--|
E|--55555---33333----------|

FILL
e|----------------------------|
B|----------------------------|
G|-----------------------222--|
D|-----------------------222--|
A|--00-300-300-3565--003-000--|
E|----------------------------|

VERSE

CHORUS

RANDOM RIFF
e|---------------|
B|---------------|
G|--2-22-2-22-2--|
D|--2----2----2--|
A|--0----0----0--|
E|---------------|
    .    .    .

ANOTHER RANDOM RIFF
e|----------------------------------|
B|----------------------------------|
G|--222222222--55-777777777-8888/7--|
D|--222222222--55-777777777-8888/7--|
A|--000000000--33-555555555-6666/5--|
E|----------------------------------|

CHORUS

FIRST PART OF VERSE RIFF FOR A LONG TIME, THEN END WITH SECOND PART OF VERSE
Comments