Broken Social Scene - Pacific Theme Replace Chords & Tabs

 

Pacific Theme Replace Chords & Tabs

Broken Social Scene Chords & Tabs

Version: 1 Type: Tab 1 rating
1 star 2 stars 3 stars 4 stars 5 stars
comments

Pacific Theme Replace Tab

     Artist:  Broken Social Scene
 Song Title:  Pacific Theme
Album Title:  You Forgot It In People

Transcribed by Corbin (stratocaster_1998@yahoo.com)


NOTE: Tune down one full step.


Beginning guitar fills:

(0:05) Gtr. 1                             (0:16) Gtr. 1      (0:24) Gtr. 1
|---------------------------------------|-------------------|-----------|
|--14--15--17--17------------17---------|---------------10--|-------10--|
|-----------------19-18---------19-18---|--11----9--11------|-----------|
|---------------------------------------|-------------------|--12(~)----|
|---------------------------------------|-------------------|-----------|
|---------------------------------------|-------------------|-----------|





[Main riff]:
(0:32) Gtr. 2
|-----------------------|
|-----------------------|
|-----------------------|
|-----------------------|
|--5-5-5-\-4-4-4-2-2-2--| 4X
|-----------------------|





(0:59) Gtr. 2
|--------------------------------------------------------------------------------------|
|--------------------------------------------------------------------------------------|
|-------------------9------------------7------------------6------------------7---------|
|--9-\-7--7--7--7-7----7--5--5--5--5-5----5--4--4--4--4-4----4--5--5--5--5-5----5------|
|-----------------------------------------------------------------------------------5--|
|--------------------------------------------------------------------------------------|





Main riff 2X @ (1:14)





(1:29)
|--0--2------0--2------0--5------0--2--|
|--2--3------2--3------2--3------2--3--|
|--2--0------2--0------2--0------2--0--|
|--2--0------2--0------2--0------2--0--|
|--0--x------0--x------0--x------0--x--|
|-----3---------3---------3---------3--|





(1:44) Gtr. 1
|--------------------------------------------------------|-----|
|--3---3---3---3---3----------10----10----10---10----10--|-----|
|----6---6---6---6---6---/-11----11----11----11---11-----|--%--|
|--------------------------------------------------------|--%--|
|--------------------------------------------------------|-----|
|--------------------------------------------------------|-----|
|(1:46) Gtr. 2                                                 |
|--------------------------------------------------------|-----|
|--------------------------------------------------------|-----|
|--------------------------------------------------------|--%--|
|--------------------------------------------------------|--%--|
|---------------5-5--5-5-5-\-4-4-4-2-2-2-----------------|-----|
|--------------------------------------------------------|-----|




[ Tab from: http://www.guitartabs.cc/tabs/b/broken_social_scene/pacific_theme_replace_tab.html ]
(1:58) Gtr. 1
|-----------------------------------------------------------|--------------------------------|
|-----3---3---3---3---3----------10----10----10---10----10--|--------------------------------|
|-------6---6---6---6---6---/-11----11----11----11---11-----|---------------%----------------|
|-----------------------------------------------------------|---------------%----------------|
|-----------------------------------------------------------|--------------------------------|
|-----------------------------------------------------------|--------------------------------|
|(1:58) Gtr. 2										     |
|-----------------------------------------------------------|--------------------------------|
|-----------------------------------------------------------|--------------------------------|
|----------------------9----------------------------7-------|----------------6---------------|
|--9--\--7--7--7--7-7------7---5---5---5----5---5-------5---|--4--4-----4-4-----4--2--2-\-0--|
|-----------------------------------------------------------|--------------------------------|
|-----------------------------------------------------------|--------------------------------|





(2:13) Gtr. 2
|-------|-------------------------------|-----|--------------------------------------------------------|
|-------|-------------------------------|-----|--------------------------------------------------------|
|-------|----6----7----9----11------11--|--%--|----6----7----9----11---11---11---11---12---11---12-11--|
|--0-/--|--4----5----7----9-----9-9-----|--%--|--4----5----7----9----9----9----9----9----9----9--------|
|-------|-------------------------------|-----|--------------------------------------------------------|
|-------|-------------------------------|-----|--------------------------------------------------------|





(3:12) Gtr. 1
|-----------------------|----------------------------------|
|--3---3---3---3---3----|-------10----10----10---10----10--|
|----6---6---6---6---6--|--/-11----11----11----11---11-----|
|-----------------------|----------------------------------|
|-----------------------|----------------------------------|
|-----------------------|----------------------------------|
|Gtr. 3 (light acoustic strumming)			   |
|--0--------------------|---2------------------------------|
|--3--------------------|---3------------------------------|
|--2--------------------|---0------------------------------|
|--0--------------------|---0------------------------------|
|--0--------------------|---x------------------------------|
|-----------------------|---3------------------------------|





(3:42) Gtr. 1
|---------------------------------|---------------------------------|-----|
|-----14----14----14----14----14--|-----12----12----12----12----12--|-----|
|--12----12----12----12----12-----|--14----14----14----14----14-----|--%--|
|---------------------------------|---------------------------------|--%--|
|---------------------------------|---------------------------------|-----|
|---------------------------------|---------------------------------|-----|
|Gtr. 3 (light acoustic strumming)                                  |
|--2------------------------------|--0------------------------------|-----|
|--3------------------------------|--0------------------------------|-----|
|--4------------------------------|--2------------------------------|--%--|
|--4------------------------------|--2------------------------------|--%--|
|--2------------------------------|--0------------------------------|-----|
|---------------------------------|---------------------------------|-----|





(3:57) Gtr. 1  [FADING OUT...........................................]
|---------------------------------|----------------------------------|
|-----15----15----15----15----15--|----14-15--- 15---15----15----15--|
|--12----12----12----12----12-----|--12-------12---12---12----12-----|
|---------------------------------|----------------------------------|
|---------------------------------|----------------------------------|
|---------------------------------|----------------------------------|
|Gtr. 3 (light acoustic strumming)                                   |
|--2------------------------------|--0-------------------------------|
|--3------------------------------|--0-------------------------------|
|--4------------------------------|--2-------------------------------|
|--4------------------------------|--2-------------------------------|
|--2------------------------------|--0-------------------------------|
|---------------------------------|----------------------------------|



I think that that's about all of it.  I know that the timing is a little rough in this tab during the parts with two guitars playing over eachother; but, besides that, I think this is a fairly accurate representation of how the song is played.

Please e-mail me if you know where I can find Broken Social Scene lyrics.
Comments