Broken Social Scene - All To All Chords & Tabs

 

All To All Chords & Tabs

Broken Social Scene Chords & Tabs

Version: 1 Type: Bass Tab

All To All Bass Tab

Broken Social Scene - All to All

*number of strums not tabbed but notes are there

Bass Verse "Call of forgiveness.." slight palm mute
G|--------------------------------------------------------------------------|
D|--------------------------------------------------------------------------|
A|--10-10-10-10-10-10-10-10-10-10-10-10-10-10-10-10-10-10-10-10-10-10-10----|
E|--------------------------------------------------------------------------|
[ Tab from: http://www.guitartabs.cc/tabs/b/broken_social_scene/all_to_all_btab.html ]
Chorus "You made your life on everything..."
G|--------------------------------------------------------------------------|
D|--------------------------------------------------------------------------|
A|--------------------------------------------------------------------------|
E|--8-8-8-8-8-8-8-8-8-8-8-8-8-8-8-8-8-8-8-8-8-8-8-8-8-8-8-8-8-8-8-8-8-8-8---|

Outro
G|--------------------------------------------------------------------------|
D|--------------------------------------------------------------------------|
A|-10-10-10-10-10-10-10-10-9-9-9-9-9----------------------------------------|
E|-----------------------------------10-10-10-10-10-10-10-10-12-12-12-12----|

G|--------------------------------------------------------------------------|
D|--------------------------------------------------------------------------|
A|--------------------------------------------------------------------------|
E|-7-7-7-7-7-7-7-7-8-8-8-8-5-5-5-5-5-5-5-5-3-3-3-3-3-3-3-3-2-2-2-2-2-2-2-2--|