Broken Social Scene - 74 Shoreline Chords & Tabs

 

74 Shoreline Chords & Tabs

Broken Social Scene Chords & Tabs

Version: 3 Type: Tab

74 Shoreline Tab

Artist: Broken Social Scene
song: 7/4 (shoreline)
guitar 1 intro

This is a good song by a good band, easy part to play, enjoy.

normal tuning
h=hammer on
p=pull-off

e|-----------------------|
B|-----------------------|
G|-----------------------|
D|-------------------13--|
A|----11-----12-11-------|
E|--0----0-0-------0-----| x4
[ Tab from: http://www.guitartabs.cc/tabs/b/broken_social_scene/74_shoreline_tab_ver_3.html ]
e|-----------------------------|
B|-----------------------------|
G|-----------------------------|
D|-------------------13h14p13--|
A|----11-----12-11-------------|
E|--0----0-0-------0-----------| x2

e|-----------------------|
B|-----------------------|
G|-----------------------|
D|-------------------13--|
A|----11-----12-11-------|
E|--0----0-0-------0-----| x8

thats all ive figured out so far, it gets u until they start strumming, hopefully more 
come. feel free to e-mail me at jtfeasel@yahoo.com if u have any questions or comments.