Broken Lift - Song One Chords & Tabs

 

Song One Chords & Tabs

Broken Lift Chords & Tabs

Version: 1 Type: Tab 0 ratings
1 star 2 stars 3 stars 4 stars 5 stars
comments

Song One Tab

Artist: Broken Lift
Title: Song one
From the album we donít have out yet cos it doesnít exist

intro lead x2 first time with P.M
    (----------------------P.M-----------------------)
E-------------------------------------------------------|
B-------------------------------------------------------|  
G-------------------------------------------------------| 
D---6---6--66-----4---4---44----------------------------|
A-44--4--4-----22---2---2-------4---4---44-----7-----6--|
E----------------------------22---2---2-----55----44----|

Intro Rythmn x1 join in on second lead riff
E-----------------------------------------------------| 
B-----------------------------------------------------| 
G--6------------4-------------------------------------| 
D--6------------4-------------4--------------7-----6--|
A--4------------2-------------4--------------7-----6--|
E-----------------------------2--------------5-----4--|


[ Tab from: http://www.guitartabs.cc/tabs/b/broken_lift/song_one_tab.html ]
verse lead x 4 
E----------------------------------------------------------
B----------------------------------------------------------
G----------------------------------------------------------
D--6---6---6---6--66---4---4---4---4-44--------------------
A4---4---4---4-------2---2---2---2--------4---4---4---4-44-
E---------------------------------------2---2---2---2------

E-----------------------------------------|
B-----------------------------------------|
G-----------------------------------------|
D-----------------------------------------|
A---7----77-----6---66--------------------|
E-5---5------4----4-----------------------|

Verse Rythmn x 4
E----------------------------------------------------| 
B----------------------------------------------------| 
G---6------------4-----------------------------------|  
D---6------------4-------------4--------------7-----6|
A---4------------2-------------4--------------7-----6|
E------------------------------2--------------5-----4|


Chorus is just rhythm with no lead (Iím singing) and a slightly 
different strum pattern (listen to the song). then one more verse 
followed by the intro

Thatís it
Comments shit like that inzane_klown@hotmail.com
p.s this is the first song our band ever wrote.
Gloopy
Comments