Brodie - The One Chords & Tabs

 

The One Chords & Tabs

Brodie Chords & Tabs

Version: 1 Type: Tab 0 ratings
1 star 2 stars 3 stars 4 stars 5 stars
comments

The One Tab

Artist: Brodie
Song: THE ONE
Tabbed BY: TIM BRYaNT
Email: theimmoralmonkey@hotmail.com


Here is a killer tab. Enjoy this.


Intro / Chorus 

--------------------
--------------------
--------------------
-9--5--5--------7---
-7--3--2--5--5--5---
----------3--2------


Intro - Lead Part

------------------------------
------------------------------
-12--11--12--11--7--9--7--11--
------------------------------
-10--9---10--9---5--7--5--9---
------------------------------



Verse - Both Guitars

-------------------
-------------------
-------------------
----5--5--------7--
-2--3--2--5--5--5--
-0--------3--2-----

[ Tab from: http://www.guitartabs.cc/tabs/b/brodie/the_one_tab.html ]
After Chorus Thingy 
First 2 Times      Last Time
--------------- | --------------------
--------------- | --------------------
--------------- | --------------------
-9-----5--7---- | --9-----5--7--5--7--
-7--2--3--5---- | --7--2--3--5--3--5--
----0---------- | -----0--------------


Breakdown Bridge - Rhytym

----------------
----------------
---------------- 
-9--7--5-----7--
-7--5--3--5--5-- 
----------3-----


Breakdon Bridge - Lead

------------|--------------------------
------------|--------------------------
-12--11--7--|--12--14--16--17--16--14--
------------|--------------------------
-10--9---5--|--10--12--14--15--14--12--
------------|--------------------------
Comments