Brodie - Rip Off Chords & Tabs

 

Rip Off Chords & Tabs

Brodie Chords & Tabs

Version: 1 Type: Tab 0 ratings
1 star 2 stars 3 stars 4 stars 5 stars
comments

Rip Off Tab

Artist: Brodie
 Song: Rip Off
Album: Brodie/ Glasshead Split EP
Tabbed BY: Tim Bryant
Email: theimmoralmonkey@hotmail.com

Intro - Lead Guitar

There was a massive dispute between the other guitarist in my band about this
intro. But I reckon it is correct. If not, email me a better version!

---------------------------------------------------------------
---------------------------------------------------------------
---------------------------------------------------------------
------6---4-6--------6---4-6-6--------6---4-6-7-7-6---4-6------
--7-7---7-------7--7---7-------7-4-4----4-----------7-------7--
--------------7-------------------------------------------7----

Intro - Rhythm Guitar

-----------
-----------
-----------
--9--6-----
--7--4--7--
--------5--


Verse
-----------------
-----------------
-----------------
--9--6--4--2--4--
--7--4--2--0--2--
-----------------


Chorus

-----------------
-----------------
-----------------
-----------9-----
--4--7--7--7--9--
--2--4--5-----7--


Solo

This is really darn close. The only thing that might be off is the number of
pick hits on each of the notes that repeat. Some are 5 and some are 6. Again,
you'll have to listen for the rhythm but at least this shows the notes.
[ Tab from: http://www.guitartabs.cc/tabs/b/brodie/rip_off_tab.html ]
----------------------------------------------------------------------------
----------------------------------------------------------------------------
----------------------------------------------------------------------------
-----------9-9-7-6-7--------------9-7-6-------------------------------------
-7-7-7-7-7------------------------------9-------------9-9-7-6-7-------------
----------------------9-9-9-9-9-9---------7-7-7-7-7-7-----------5-5-5-5-5-5-

----------------------------------------------------------------------------------
------------------------------------------------------7-9-------------------------
--------------------9-9-8-6-8-6-8-6-----------9-9-8-9-----9-9-9-9-9-9-8-6-8-6-8-6-
------------------------------------9-9-9-9-9-------------------------------------
--9-9-7-6-7-7-7-7-7---------------------------------------------------------------
----------------------------------------------------------------------------------

------------------------
---------10-10-9-7-9----
---------------------9--
-9-9-9-9----------------
------------------------
------------------------

Ending

The first 4 are the chords for the last riff. The fifth one shows 
the lead-in chord as it repeats. You'll have to listen to get the 
rhythm.

-----------------
-----------------
-----------------
--6-----9-----6--
--4--7--7--9--3--
-----5-----7-----



Thatís it. Enjoy. Remember to email me with comments and corrections and thanx!!!
laters
Comments