Brodie - One Of A Kind Chords & Tabs

 

One Of A Kind Chords & Tabs

Brodie Chords & Tabs

Version: 1 Type: Tab 0 ratings
1 star 2 stars 3 stars 4 stars 5 stars
comments

One Of A Kind Tab

Brodie
When I'm With You
One of A Kind
Transcribed by --====--
ss4_aaron@yahoo.com


rythym beggining

(use lots of distortion and a thick bass tone) or just use your shitties pickups

e|------------------------------------------------------------------------------------|
B|------------------------------------------------------------------------------------|
G|------------------------------------------------------------------------------------|
D|-12-12-12-7-7-7-5-5-5---------------------------------------------------------------|
A|-12-12-12-7-7-7-5-5-5---------------------------------------------------------------|
E|-10-10-10-5-5-5-3-3-3---------------------------------------------------------------|

lead in during rythym beggining
[ Tab from: http://www.guitartabs.cc/tabs/b/brodie/one_of_a_kind_tab.html ]
e|-3-2--------3-2------------3-2------------------------------------------------------|
B|----3-3-5-3-----3-5-3-2-3------3-3-5-3----------------------------------------------|
G|------------------------------------------------------------------------------------|
D|------------------------------------------------------------------------------------|
A|------------------------------------------------------------------------------------|
E|------------------------------------------------------------------------------------|

solo

e|-------2-0-0-2-3-2-0----------------------------------------------------------------|
B|-3-3-5---------------3--------------------------------------------------------------|
G|------------------------------------------------------------------------------------|
D|-----------------------5------------------------------------------------------------|
A|------------------------------------------------------------------------------------|
E|------------------------------------------------------------------------------------|



--====--
ss4_aaron@yahoo.com

Comments