Brixx Mandy - If You Chords & Tabs

 

If You Chords & Tabs

Brixx Mandy Chords & Tabs

Version: 1 Type: Tab 0 ratings
1 star 2 stars 3 stars 4 stars 5 stars
comments

If You Tab

   
 MANDY BRIXX
If you
(A. Monroe/M.D. Slimy)
 M.D. Slimy 
  Tr    8x tr   8x tr   8x
|-------|-------|-------| \
|-------|-------|-------|  \
|------.|------.|------.|   \
|------.|------.|------.|    \
|-7-0---|--5-0--|-------|     \
|-------|-------|--5-0--|      \
|                               \
|                                2x
|Andy Monroe                    /
|-------|-------|-------|      /
|-------|-------|-------|     /
|-9~~~--|--7~~~-|-------|    /
|-9~~~--|--7~~~-|--7~~~-|   /
|-7~~~--|--5~~~-|--7~~~-|  /
|-------|-------|--5~~~-| /

Both guitars durin’ th’ verse
                       10x
|----------------------|
|----------------------|
|-999---7---7---2-2-2-.|
|-999---7---7---2-2-2-.|
|-777-0-5-0-5-0-0-0-0--|
|----------------------|
[ Tab from: http://www.guitartabs.cc/tabs/b/brixx_mandy/if_you_tab.html ]
Both guitars durin’ th’ chorus
             4x
|------------|
|------------|
|-999-7-6-7-.|
|-999-7-6-7-.|
|-777-5-4-5--|
|------------|

Both guitars durin’ th’ bridge 
                   3x
|------------------|-----|
|---------333-xxx--|-----|
|-222-xxx-222-xxx-.|-222-|
|-222-xxx-000-xxx-.|-222-|
|-000-xxx----------|-000-|
|------------------|-----|

Song structure
Intro
Verse 10x
Chorus 4x
Bridge 1x
8 drums kicks
Verse 10x
Chorus 4x
Bridge 1x
10 drums kicks
Solo
Chorus 4x

I can’t figure out th’ solo for two good reason: first, I got a broken hand, second, M.D. Slimy is a supafuzz guitar munsta… Somethin’ between the ultrafast blues Slash lick, James Williamson’s scratchy figures ‘n last but not least Johnny thunders’ casual magnetism :-) 
________________________________________ 
< Don't worry, it's fuckin' rocka rolla! >
 ---------------------------------------- 
     \
      \  (__)  
         (\/)  
  /-------\/    
 / | 666 ||    
*  ||----||      
   ~~    ~~      
Comments