Britny Fox - Hair Of The Dog Chords & Tabs

 

Hair Of The Dog Chords & Tabs

Britny Fox Chords & Tabs

Version: 1 Type: Tab 0 ratings
1 star 2 stars 3 stars 4 stars 5 stars
comments

Hair Of The Dog Tab

Author/Artist: Britny Fox
Title: Hair of the Dog (1989)
Album: Boys In Heat
Transcribed by: Scott Schaefer

This is a really cool song that has a powerful main riff written in the
key of G (one sharp in the key signature).
Courtesy of the Britny Fox Web Site:  http://www.britnyfox.com

----------|-----------------|---------|-------------------------------|--------|
----------|-----------------|---------|-------------------------------|--------|
----------|-----------------|---------|-------------------------------|--------|
----------|-----------------|---------|-2----------------------------2|--------|
-3x-----4x|-----------------|---------|-2-----------------------2-----|--------|
----------|-0x--------------|-12\-----|-0--------0----3----4----------|--------|
 Heavy Palm mute------       slide      Riff 1---------------------------------|

-------------------|--------------------------|
-------------------|--------------------------|
-------------------|--------------------------|
--4/5---2----0----2|--------------------------|
-------------------|--------------------------|
-------------------|--------------------------|
      End Riff 1---   (Repeat Riff 1 3 times--|                  Riff 2 Below:

------------------------|------------------------|------------------------|---|
------------------------|------------------------|------------------------|---|
-2---------------------2|---------4/5---2---0---2|--2--------------------2|---|
-2-----------------2----|------------------------|--2----------------2---2|---|
-0-----0---3---4--------|------------------------|--0--------3---4--------|---|
------------------------|------------------------|------------------------|---|
 Red   hot   ma-ma         vel-vet      charm-er     time's come to pay your
[ Tab from: http://www.guitartabs.cc/tabs/b/britny_fox/hair_of_the_dog_tab.html ]
------------------------|-----------------------------------------------------|
------------------------|-----------------------------------------------------|
-2---2--4/-----2---0----|-----------------------------------------------------|
-2---2-----------------2|-----------------------------------------------------|
------------------------|-----------------------------------------------------|
------------------------|-----------------------------------------------------|
 dues                     Repeat Riff 1 once                         Chorus:

--------------------------|-----------------|---------------------------|-----|
-7-----------------3/5----|-----------------|-7-------------------------|-----|
-7-----------------3/5----|-----------------|-7-------------------------|-----|
-7-----------------3/5----|-----------------|-7-------------------------|-----|
-5-----------------1/3----|-----------------|-5-------------------------|-----|
--------------------------|-----------------|---------------------------|-----|
 Now you're messin' with a (a son of a bitch) Now you're messin' with a

---------------|-------------------------|------------------------------------|
-3--3--5--5----|-------------------------|------------------------------------|
-3--3--5--5----|-------------------------|------------------------------------|
-3--3--5--5----|-------------------------|------------------------------------|
-1--1--3--3----|-------------------------|------------------------------------|
---------------|-------------------------|------------------------------------|
 son of a bitch.  Repeat Chorus Riff once

---------------------|-------------------------|------------------------------|
---------------------|-------------------------|------------------------------|
--9----9----9----9---|-9---7----------------7--|------------------------------|
---------------------|---------9--7--5--9------|------------------------------|
---------------------|-------------------------|------------------------------|
---------------------|-------------------------|------------------------------|
 SOLO: (with talk box) with chorus Riff (repeat)
Comments