Britney Spears - Toxic Chords & Tabs

 

Toxic Chords & Tabs

Britney Spears Chords & Tabs

Version: 1 Type: Tab 0 ratings
1 star 2 stars 3 stars 4 stars 5 stars
comments

Toxic Tab

   
-----------------------------------------------------------------------------
			     Toxic - Britney Spears
-----------------------------------------------------------------------------
Tabbed by: Guy Kerckx
Email: magicguido666@hotmail.com

Tuning: E

Intro:

e|-------------------------------------15\10/11\8---------------------------|
B|--------------------------------------------------------------------------|
G|--------------------------------------------------------------------------|
D|--------------------------------------------------------------------------|
A|--3-3h4h5h6-3h4h5h6--3h6p5p4----------------------------------------------|
E|--------------------------------------------------------------------------|


Vers:

          C	     C  	G         
e|--------x----------x----------x-------------------------------------------|
B|--------x---------13----------x-------------------------------------------|
G|--------5---------12----------4-------------------------------------------|
D|--------5---------10----------5-------------------------------------------|
A|--------3---------10----------5-------------------------------------------|
E|--------x----------0----------3-------------------------------------------|


Chorus

	  C	D#    D	    C#
e|--------x-----x-----x-----x-----------------------------------------------|
B|--------5-----8-----7-----6-----------------------------------------------|
G|--------5-----8-----7-----6-----------------------------------------------|
D|--------5-----8-----7-----6-----------------------------------------------|
A|--------3-----6-----5-----4-----------------------------------------------|
E|--------------------------------------------------------------------------|
[ Tab from: http://www.guitartabs.cc/tabs/b/britney_spears/toxic_tab.html ]
e|--------------------------------------------------------------------------|
B|--------------------------------------------------------------------------|
G|--------------------------5-----------------------------------------------|
D|--------------5-------------5---------------------------------------------|
A|--3-3-3-3-3-3---6-------3-----6-------------------------------------------|
E|--------------------------------------------------------------------------|


Intermezzo's:

e|----8/11\10/15------------------------------------------------------------|
B|--------------------------------------------------------------------------|
G|--------------------------------------------------------------------------|
D|--------------------------------------------------------------------------|
A|--------------------------------------------------------------------------|
E|--------------------------------------------------------------------------|

e|--------------------------------------------------------------------------|
B|--------------------------------------------------------------------------|
G|--------------5-5--------------5-5---------------5-5----------------------|
D|--------------------------------------------------------------------------|
A|--3-3-3-3-3-3------6-6-6-6-6-6------5-5-5-5-5-5---------------------------|
E|--------------------------------------------------------------------------|

e|--------------------------------------------------------------------------|
B|--------------------------------------------------------------------------|
G|--------------------------------5-5--------------5-5----------------------|
D|--------------------------------------------------------------------------|
A|--4-4-4-4-4-4-4-4---3-3-3-3-3-3------6-6-6-6-6-6--------------------------|
E|--------------------------------------------------------------------------|

e|--------------------------------------------------------------------------|
B|--------------------------------------------------------------------------|
G|---------------5-5--------------------------------------------------------|
D|---6-6-6-6-6-6------5-5-5-5-5-5-5-5---------------------------------------|
A|--------------------------------------------------------------------------|
E|--------------------------------------------------------------------------|


| /  slide up
| \  slide down
| h  hammer-on
| p  pull-off
| ~  vibrato
| +  harmonic
| x  Mute note
=============================================================================
Comments