Britney Spears - Toxic Chords & Tabs

 

Toxic Chords & Tabs

Britney Spears Chords & Tabs

Version: 1 Type: Chords 0 ratings
1 star 2 stars 3 stars 4 stars 5 stars
comments

Toxic Chords

   
Okay, this is a tab of Britney Spears' song "Toxic". I Haven't seen in tabs that
have gotten it right. To me, it works if you sing along, and it sounds right with
the recording. Enjoy, STEVEN.

Intro-(MAIN RIFF)

e-------------------3-----------------     The chords under this
b---------------------3-4-3-1---------     part is a Cm.
g-------------------------------------
d-------1p0-----0---------------------
a---3-3-----3-0-----------------------
E-------------------------------------

Verse-

C
Baby, can't you see I'm calling a guy like you should wear a warning
G#
It's dangerous
G
I'm falling RIFF

There's no escape I can't wait I need a hit Baby, give me it
You're dangerous
I'm loving it RIFF

Refrain (or something) same chords as Verse.

Too high
Can't come down
Losin' my head
Spinnin' 'round and 'round
Do you feel me now? RIFF
[ Tab from: http://www.guitartabs.cc/tabs/b/britney_spears/toxic_crd.html ]
e-----------------------------------
b-----------------------------------
g-----------------------------------
d-----------------------------------
a-3-3-3-3-3-3-3-3-3-3-3-3-3---------
E-----------------------------------

Chourus-

C
With the taste of your lips
    G#
I'm on a ride
F               G#
You're toxic I'm slippin' under (Ohh Ohh)
C                          G#
With a taste of the poison paradise
F
I'm addicted to you
G#                                 C
Don't you know that you're toxic?
      G#
And I love what you do
          F                G#
Don't you know that you're toxic?

THE REST OF THE LYRICS

It's getting late 
To give you up
I took a sip 
From my devil's cup
Slowly, it's taking over me

Too high 
Can't come down
It's in the air and it's all around
Can you feel me now?

CHORUS

MUSIC BREAK

CHORUS x2

Intoxicate me now
With your lovin' now
I think I'm ready now
(Spoken) I think I'm ready now
Intoxicate me now
With your lovin' now
I think I'm ready now


Allright, that's it. If you want to add anything let me know.
And if anyone wants anymore tabs for pop songs e-mail me at Cattywampus_14@hotmail.com.
PEACE
Comments