Britney Spears - Toxic Chords & Tabs

 

Toxic Chords & Tabs

Britney Spears Chords & Tabs

Version: 1 Type: Bass Tab 0 ratings
1 star 2 stars 3 stars 4 stars 5 stars
comments

Toxic Bass Tab

   
-----------------------------------------------------------------------------
			     Toxic - Britney Spears
-----------------------------------------------------------------------------

Tabbed By : Guy Kerckx	
e-mail: magicguido666@hotmail.com

Tuning: E

Vers :

G|--------------------------------------------------------------------------|
D|------------1-3-----------------------------------------------3/5-3/5-----|
A|---------------------------3-3-5-6-5-3-5-6--6--6/3------------------------|
E|---8-8/0---------8-8/0---------------------------------3--3---------------|

G|--------------------------------------------------------------------------|
D|----------1-----3/5--3/5--------------------------------------------------|
A|-------------3------------------------------------------------------------|
E|--8-8/0-------------------------------------------------------------------|

G|--------------------------------------------------------------------------|
D|--------1----------1-3----------------------------------------------------|
A|--3-3----3--3-3--------3-3/0----3-3-5-6-5-3-5-6--6--6/3-------------------|
E|--------------------------------------------------------------------------|
[ Tab from: http://www.guitartabs.cc/tabs/b/britney_spears/toxic_btab.html ]
G|--------------------------------------------------------------------------|
D|--------3/5-3/5-----------------------------------------------------------|
A|--------------------------------------------------------------------------|
E|--3--3--------------------------------------------------------------------|


Chorus x2 :

G|--------------------------------------------------------------------------|
D|--------------------------------------------------------------------------|
A|--3-3-3-3-3-3-3-3-3-3-3-3-3-3-3-------------------------------------------|
E|--------------------------------------------------------------------------|

G|-----------------------------8---------------7----------------------------|
D|--------------------------------------------------------------------------|
A|--3-3-3-3-3-6-6--6-----6---5-5--5---5---4-4-4-4-4-------------------------|
E|--------------------------------------------------------------------------|

G|--------------------------------------------------------------------------|
D|--------------------------------------------------------------------------|
A|--3-3-3-3-3---6-6-6-6-6---------------------------------------------------|
E|----------------------------------------4-4-4-4-4-------------------------|

G|--------------------------------------------------------------------------|
D|--------------------------------------------------------------------------|
A|---10-10-10-10-4-4-4-4----------------------------------------------------|
E|--------------------------------------------------------------------------|

| /  slide up
| \  slide down
| h  hammer-on
| p  pull-off
| ~  vibrato
| +  harmonic
| x  Mute note
=============================================================================
Comments