Britney Spears - Sometimes Chords & Tabs

 

Sometimes Chords & Tabs

Britney Spears Chords & Tabs

Version: 2 Type: Chords 0 ratings
1 star 2 stars 3 stars 4 stars 5 stars
comments

Sometimes Chords

   
Sometimes by Britney Spears
Boy Friday

Intro:
   E-----1------------------------------------------
   B-3-4---1---1-3-4-------1-3-4-3-1----------------
   G-----------------3---3--------------------------
   D------------------------------------------------
   A------------------------------------------------
   E------------------------------------------------



Verse:(those are the chords for the verses)


(Bb) (F) (Cm) (Bb) (F) (Cm) (F) (Cm) (F)



Intro to the Chorus: play (Cm) (F) (Bb)(F) (Gm) (Cm) (Bb) (Cm) (F)




Chorus: [chords above lyrics in ( ) ]


(Bb) (F) (Cm)
"Sometimes i run, Sometimes i hide, Sometimes i'm scared of you,

(Bb) (F) (Cm) (F) but
all i really want is to hold you tight.. treat you right.. be with (Cm) (F)
you day and night baby, all i need is time."


[ Tab from: http://www.guitartabs.cc/tabs/b/britney_spears/sometimes_crd_ver_2.html ]
(Gm)
(D) (Bb) (C) (Cm)
"Just hang around and you'll see.. there's no where i'd rather be.. if (F)
you love me.. trust in me.."




Guitar Solo:


(strum a Bb before playing solo..)

   E-----1------------------------------------------
   B-3-4---1---1-3-4-------1-3-4-3-1----------------
   G-----------------3---3--------------------------
   D------------------------------------------------
   A------------------------------------------------
   E------------------------------------------------
   E-----1-----5-6-5-3------------------------------
   B-3-4---1-------------1-3-4-3-1------------------
   G-------------------3------------3-2-3-----------
   D------------------------------------------------
   A------------------------------------------------
   E------------------------------------------------




Chorus.. repeat 3 times after solo..
one guitar is still playing solo.. the other is playing chords.

but... after the solo..
they move the chords 1 fret higher..
so you would play

B instead of Bb..
F# instead of F..
C#m instead of Cm.


thats about it..


Thank You.

Comments