Britney Spears - My Prerogative Chords & Tabs

 

My Prerogative Chords & Tabs

Britney Spears Chords & Tabs

Version: 1 Type: Tab 0 ratings
1 star 2 stars 3 stars 4 stars 5 stars
comments

My Prerogative Tab

Britney Spears - My Prerogative

Hey there this is my first tab so go easy on me, It's sounds like it when I play it so
hopefully it'll sound like it to you to. Any questions, comments or, Problems send them
to Sarahzed@fsmail.net. Enjoy!

Standard tuning

All downwards strokes 

[ Tab from: http://www.guitartabs.cc/tabs/b/britney_spears/my_prerogative_tab.html ]
Everybody's talking all this stuff about me why don't they just let me live
|-3-3-3-3-3-3-------2-2-2-2-2-2-------------3-3-3-3-3-3------------------2-|
|-0-0-0-0-0-0-------3-3-3-3-3-3-------------0-0-0-0-0-0------------------1-|
|-0-0-0-0-0-0-------2-2-2-2-2-2-------------0-0-0-0-0-0------------------2-|
|-0-0-0-0-0-0-------0-0-0-0-0-0-------------0-0-0-0-0-0------------------0-|
|-2-2-2-2-2-2-------x-x-x-x-x-x-------------2-2-2-2-2-2------------------X-|
|-3-3-3-3-3-3-------x-x-x-x-x-x-------------3-3-3-3-3-3------------------X-|
 
I don't need permission make my own decisions that's my prerogative
|-3-3-3-3-3-3---------2-2-2-2-2-2-----------3-3-3-3-3-3------------------2-|
|-0-0-0-0-0-0---------3-3-3-3-3-3-----------0-0-0-0-0-0------------------1-|
|-0-0-0-0-0-0---------2-2-2-2-2-2-----------0-0-0-0-0-0------------------2-|
|-0-0-0-0-0-0---------0-0-0-0-0-0-----------0-0-0-0-0-0------------------0-|
|-2-2-2-2-2-2---------x-x-x-x-x-x-----------2-2-2-2-2-2------------------X-|
|-3-3-3-3-3-3---------x-x-x-x-x-x-------------3-3-3-3-3-3----------------X-|

The Tabs

|-5-5-5-5-5-5--4-4-4-4-4-4--5-5-5-5-5-5--4-|
|------------------------------------------|
|------------------------------------------|
|------------------------------------------|
|------------------------------------------|
|------------------------------------------|
Comments