Britney Spears - Everytime Chords & Tabs

 

Everytime Chords & Tabs

Britney Spears Chords & Tabs

Version: 6 Type: Tab 0 ratings
1 star 2 stars 3 stars 4 stars 5 stars
comments

Everytime Tab

e|--9----7---9------------9----7---9----------------------|
B|----10-------10/9/10-7----10-------10/9/10-7------------|
G|--------------------------------------------------------|
D|--------------------------------------------------------|
A|--------------------------------------------------------|
E|--------------------------------------------------------|
[ Tab from: http://www.guitartabs.cc/tabs/b/britney_spears/everytime_tab_ver_6.html ]
e|----9----------9---------7--9---12--12--12--97---------|
B|--9---9-10---9---9-10-10--------------------------------|
G|--------------------------------------------------------|
D|--------------------------------------------------------|
A|--------------------------------------------------------|
E|--------------------------------------------------------|

e|--0-09/10/9-9-9-5-4-4-5-0-2-2--2-5-4-4-5-7-------------|
B|--------------------------------------------------------|
G|--------------------------------------------------------|
D|--------------------------------------------------------|
A|--------------------------------------------------------|
E|--------------------------------------------------------|

e|--12-12-12-9-70-0-9/10/9-9-9-5-4-4-5-0-2-2-2-5-4-4-5-7-|
B|--------------------------------------------------------|
G|--------------------------------------------------------|
D|--------------------------------------------------------|
A|--------------------------------------------------------|
E|--------------------------------------------------------|
Comments