Britney Spears - Everytime Chords & Tabs

 

Everytime Chords & Tabs

Britney Spears Chords & Tabs

Version: 4 Type: Tab 0 ratings
1 star 2 stars 3 stars 4 stars 5 stars
comments

Everytime Tab

e|--9---7~-----9------------------9----9h10p9-7~-----9----------------|
B|---10---------10--9\10/9-7-5-----10-----------------10--9\10/9-7-5--|
G|-9---------9------------------9------------------9------------------|
D|--------------------------------------------------------------------|
A|--------------------------------------------------------------------|
E|--------------------------------------------------------------------|
[ Tab from: http://www.guitartabs.cc/tabs/b/britney_spears/everytime_tab_ver_4.html ]
e|---7----------7----------7--9----12-12-12--9-7-0-0-7-9h10p9-9-9-5-4-|
B|-9---9--10--9---9--10-10------10------------------------------------|
G|--------------------------------------------------------------------|
D|--------------------------------------------------------------------|
A|--------------------------------------------------------------------|
E|--------------------------------------------------------------------|

e|-4-4-0-2-2-2-5-4-4-4-5-7---5~---------------------------------------|
B|--------------------------------------------------------------------|
G|--------------------------------------------------------------------|
D|--------------------------------------------------------------------|
A|--------------------------------------------------------------------|
E|--------------------------------------------------------------------|
Comments