Britney Spears - Baby One More Time Chords & Tabs

 

Baby One More Time Chords & Tabs

Britney Spears Chords & Tabs

Version: 2 Type: Chords 0 ratings
1 star 2 stars 3 stars 4 stars 5 stars
comments

Baby One More Time Chords

Ok here goes this is played all the way through the song including bridges and chorus.
It goes:
Strum each chord downstroke three times each
  3x 3x 3x 3x 3x
e-2--2--2-----2--|
B-2--2--3-----2--|
G-4--3--2--1--3--|
D-4--4-----2--4--|
A-2--4-----2--4--|
E-2--2-----0--2--|

Outro
  3x 3x 3x 3x 3x 3x 3x 3x 3x 3x
e-2--2--2-----2--3--0--3-----2--|
B-2--2--3-----2--0--2--0-----2--|
G-4--3--2--1--3--0--2--0--1--3--|
D-4--4-----2--4--0--2--0--2--4--|
A-2--4-----2--4--2--0--2--2--4--|
E-2--2-----0--2--3--0--3--0--2--|
[ Tab from: http://www.guitartabs.cc/tabs/b/britney_spears/baby_one_more_time_crd_ver_2.html ]
Comments