British Sea Power - Remember Me Chords & Tabs

 

Remember Me Chords & Tabs

British Sea Power Chords & Tabs

Version: 3 Type: Tab 0 ratings
1 star 2 stars 3 stars 4 stars 5 stars
comments

Remember Me Tab

   
British Sea Power - Remember Me
From The Decline of British Sea Power
Tabbed by Tombe (jamesbandenburg@hotmail.com)


This tab is for what Yan plays on rhythm guitar throughout - I don't know Noble's lead guitar parts yet
but I'm working on it.


About the rhythms: For the actual tabbed out bits, I've tried to place the notes relative to each other
to give you some idea of the rhythm. The rhythms are much easier to distnguish live than on the studio
version.


Regular tuning, with distortion or overdrive.


Intro

E---------------------------------------------------------------
B---------------------------------------------------------------
G---------------------------------------------------------------
D-----5-------------------------5-------------------------------
A-----5-5-5-5-5-5-5-5-5-5-5-5-5-5-5-5-5-5-5-5-5-5-5-5-5-5-5-5-5-
E-3-3-3-3-3-3-3-3-3-3-3-3-3-3-3-3-3-3-3-3-3-3-3-3-3-3-3-3-3-3-3-


Main riff

---------------------------------------------------------------
---------------------------------------------------------------
---------------------------------------------------------------
-17--17-17-17-16-14--14-14-14-12-9---9-9-9-7-5-----------------
-17--17-17-17-16-14--14-14-14-12-9---9-9-9-7-5-----------------
-15--15-15-15-14-12--12-12-12-10-7---7-7-7-5-3-----------------


Rhythm guitar - Power chords throughout

G : E A D G B E
    3 5 5 x x x

B : E A D G B E
    7 9 9 x x x
C : E A  D  G B E
    8 10 10 x x x

Rhythm pattern: -x--x--x--x-x--x-x-x-x--x-- throughout the whole song.


During solo - G B C G G B C G


1st verse:



Do you worry about your health?
G

Do you watch it slowly change?
B

When you listen to yourself
C

Does it feel like somebody else?
G

Did you notice when you began to disappear?
G					B

Watch it slowly at first
	   C
Until there's nobody really there
		G

Increment by increment
G

Increment by increment
B

Increment by increment
C

Chorus:

---------------------------------------------------------------
---------------------------------------------------------------
---------------------------------------------------------------
-17--17-17-17-16-14--14-14-14-12-9---9-9-9-7-5-----------------    x2
-17--17-17-17-16-14--14-14-14-12-9---9-9-9-7-5-----------------
-15--15-15-15-14-12--12-12-12-10-7---7-7-7-5-3-----------------
[ Tab from: http://www.guitartabs.cc/tabs/b/british_sea_power/remember_me_tab_ver_3.html ]
Oh,    remember me, oh remember me, do you remember me? 


Rhythm in bridge - G B C G G B C G


2nd verse:

--------------------
--------------------
--------------------
5-5-5-5-------------
5-5-5-5-Let ring----
3-3-3-3-------------

Did one half of you pass away?


--------------------
--------------------
--------------------
9-9-9-9-------------
9-9-9-9-Let ring----
7-7-7-7-------------

What about the other half?


------------------------
------------------------
------------------------
10-10-10-10-------------
10-10-10-10-Let ring----
8--8--8--8--------------

What about the other half?

(back to power chords)

Whatever!
G

You're still part of the same old bloody regime
G						B

With someone taking it out while you were putting it in again
		C			      G


Increment by increment
G

Increment by increment
B

Oh, let me be your instrument!
C

Chorus:

---------------------------------------------------------------
---------------------------------------------------------------
---------------------------------------------------------------
-17--17-17-17-16-14--14-14-14-12-9---9-9-9-7-5-----------------    x2
-17--17-17-17-16-14--14-14-14-12-9---9-9-9-7-5-----------------
-15--15-15-15-14-12--12-12-12-10-7---7-7-7-5-3-----------------

Oh,    remember me, oh remember me, do you remember me? 


For the bridge, do what you want - improvise, hit the G-B-C-G chord progression like mad, then...


---------------------------------------------------------------
---------------------------------------------------------------
---------------------------------------------------------------
-17--17-17-17-16-14--14-14-14-12-9---9-9-9-7-5-----------------    x2
-17--17-17-17-16-14--14-14-14-12-9---9-9-9-7-5-----------------
-15--15-15-15-14-12--12-12-12-10-7---7-7-7-5-3-----------------

Oh,    remember me, oh remember me, do you remember me? 

---------------------------------------------------------------
---------------------------------------------------------------
---------------------------------------------------------------
-17--17-17-17-16-14--14-14-14-12-9---9-9-9-7-5-----------------    x2
-17--17-17-17-16-14--14-14-14-12-9---9-9-9-7-5-----------------
-15--15-15-15-14-12--12-12-12-10-7---7-7-7-5-3-----------------

From the here and now unto eternity will you remember...

-----------------------
-----------------------
-----------------------
5--5--5--5-------------
5--5--5--5-------------
3--3--3--3-------------

Me? (Make sure you hit these last 4 chords nice and loud)


That's it, I'm working on figuring out Noble's solos at the moment.
Comments