British Sea Power - Remember Me Chords & Tabs

 

Remember Me Chords & Tabs

British Sea Power Chords & Tabs

Version: 2 Type: Tab 0 ratings
1 star 2 stars 3 stars 4 stars 5 stars
comments

Remember Me Tab

   
Britsh Sea Power - Remember Me 

Intro: (Part 1)
    G
|--------------------------|
|--------------------------|
|-x-4----4---4-------------|
|-x-5----5-x-5-------------|
|-x-5----5-x-5-------------|
|-x-3----3-x-3-------------|

(Part 2)

Guitar 1:
   G
|--------------------------|
|--------------------------|
|--4-----------------------|
|--5-----------------------|
|--5-----------------------|
|--3-----------------------|

Guitar 2:
  D       F# E          D B          A G
|----------------------------------------|
|----------------------------------------|
|----------------------------------------|
|-5--5-5-5-4-2--2-2-2-2------------------|
|-----------------------5-2--2-2-2-2-----|
|------------------------------------5-3-|

Part 2 X2

(Part 2)

Guitar 1:

|--3-------------------|--2-------------------|
|--3-------------------|--3-------------------|
|--4-------------------|--4-------------------|
|--5-------------------|--4-------------------|
|--5-------------------|--2-------------------|
|--3-------------------|----------------------|

Guitar 2:

|----------------------|----------------------|
|--5^-5^---7^-7^-------|--5^-5^---7^-7^-------|
|-------4--------4-4-4-|-------4--------4-4-4-|
|----------------------|----------------------|
|----------------------|----------------------|
|----------------------|----------------------|



Guitar 1:

|--3------------------3---------------------------|
|--5------------------3---------------------------|
|--5------------------4---------------------------|
|--5------------------5---------------------------|
|--3------------------5---------------------------|
|---------------------3---------------------------|


Guitar 2:

|-------------------------------------------------|
|-5^-5^---7^-7^-7-7-7---------------3-3-3-3-5-3---|
|-------4-------------2/4-4-4-4-2-4-------------4-|
|-------------------------------------------------|
|-------------------------------------------------|
|-------------------------------------------------|

Part 3 X2
Scond time, for the last guitar 2 part do this instead:

|-/12-12-12--7-7-7-7--14-14-14-14--7-7-7-7--------------|
|-/12-12-12--8-8-8-8--15-15-15-15--8-8-8-8-7^-----------|
|---------------------------------------------9-9-7-7-7-|
|-------------------------------------------------------|
|-------------------------------------------------------|
|-------------------------------------------------------|

[ Tab from: http://www.guitartabs.cc/tabs/b/british_sea_power/remember_me_tab_ver_2.html ]
Verse 1:
G                              Bm
Do you worry about your health
                              C
Do you watch it slowly change
                                G +
And when you listen to yourself, does it feel like somebody else
G                                 /\ Bm
And did you notice when you began to disappear
       C
Was it slowly at first
                G
Until there was nobody really there
Bm
Increment by increment
C
Increment by increment
D
Increment by increment 

LEAD FOR VERSE: (marked by symbols)
+
|------------------------|
|------------------------|
|------------------------|
|-7-7-7-7h9-9-9-9-7\5-5--|
|------------------------|
|------------------------|

/\
|--------------------------------------------------------------------------------------|
|-15-15--15-15----15h17--17p15-15p12---15-15--15-17p15p12-12---------------------------|
|-14-14--14-14-----------------------------------------------14-12/-\12-12-12-14-14-14-|
|--------------------------------------------------------------------------------------|
|--------------------------------------------------------------------------------------|
|--------------------------------------------------------------------------------------|

|----------------------------------------------------------------------------------------|
|-12-12-12-12-12-12-10-10-10-12-12-12-12-15-15-15-15-12-12-12-10-------------------------|
|----------------------------------------------------------------12-12-12-11-11-11-11-12-|
|----------------------------------------------------------------------------------------|
|----------------------------------------------------------------------------------------|
|----------------------------------------------------------------------------------------|




Chorus:
D       F#* E*
Oh remember me
          D   B
Yeah remember me
        A   G
Oh remember me 

D         F#* E*
Yeah remember me
        D   B
Oh remember me
              A   G    A
Will you remember me?


SOLO:
|---------9/--------------------|
|-------------------------------|
|-------------------------------|
|-9-9-9-9-----------------------|
|-------------------------------|
|-------------------------------|

|----15----------------------------15-|
|-12----12-15-------------12-15-15----|
|-------------12-14-------------------|
|-------------------------------------|
|-------------------------------------|
|-------------------------------------|


Verse 2: (same as verse 1, with lyrics:)

Did half of you pass away
What about the other half
Yeah what about the other half
Whatever!
We're all part of the same old bloody regime
With someone taking it out whilst you were putting it in
Increment by increment
Increment by increment
Increment by increment 

Chorus

Solo

Chorus

     E A D  G  B E
F#* |x-9-11-11-x-x
E*  |x-7-9--9--x-x
Comments