British Sea Power - North Hanging Rock Chords & Tabs

 

North Hanging Rock Chords & Tabs

British Sea Power Chords & Tabs

Version: 1 Type: Tab 0 ratings
1 star 2 stars 3 stars 4 stars 5 stars
comments

North Hanging Rock Tab

North Hanging Rock (from Open Season)
by
British Sea Power


This part is played by Noble. As far as i can tell it runs through the whole song, with 
slight variations.
[ Tab from: http://www.guitartabs.cc/tabs/b/british_sea_power/north_hanging_rock_tab.html ]
e|---------------------------------------------------------|
B|---------------------------------------------------------|
G|-------7----------6-----------------4----------4---------|
D|----7-----7----7-----7---7-------7-----7----7-----7---7--|
A|--5---------5----------5------5----------5----------5----|
E|---------------------------------------------------------|

e|---------------------------------------------------------|
B|---------------------------------------------------------|
G|---------------------------------------------------------|
D|--------5---------4----------------5----------4----------|
A|-----5----5----5-----5---5------5-----5----5-----5---5---|
E|--3---------3----------3-----3----------3----------3-----|


Feel free to correct or add to this tab.
Comments