Bright Eyes - Waste Of Paint Chords & Tabs

 

Waste Of Paint Chords & Tabs

Bright Eyes Chords & Tabs

Version: 1 Type: Tab

Waste Of Paint Tab

standard tuning
[ Tab from: http://www.guitartabs.cc/tabs/b/bright_eyes/waste_of_paint_tab.html ]
e-33-33----33-3-3-333--------------------|
b-33-33----33-3-3-333--------------------|
g-00-00----00-0-0-000--------------------|
d-00-00----22-2-2-222--------------------|
a-22-22----33-3-3-333--------------------|
e-33-33----00-0-0-000--------------------|
thats about it sorry if the rythem was misleading

Ive also seen it in power chords, its like this;

e-------------------------|
b-------------------------|
g-------------55-5-5-555--|
d--55--55-----55-5-5-555--|
a--55--55-----33-3-3-333--|
e--33--33-----------------|