Bright Eyes - True Blue Chords & Tabs

 

True Blue Chords & Tabs

Bright Eyes Chords & Tabs

Version: 1 Type: Tab 0 ratings
1 star 2 stars 3 stars 4 stars 5 stars
comments

True Blue Tab

   
----------------------------------------------------
	     True Blue- Bright Eyes
---------------------------------------------------------
Tabbed by:elmer
Email: ereyes9@hotmail.com

---------------------------------------------------------|
---------------------------------------------------------|
-----0----------0------2-----------0---------------------|
----2-----2---0------3-----3----2------------------------|
--3----3-----------3-----3---3---------------------------|
----------3----------------------------------------------|
[ Tab from: http://www.guitartabs.cc/tabs/b/bright_eyes/true_blue_tab.html ]
          C		        G
I am a blueblood I will admit that.
	F		C
I dance in blue shoes and wear a blue hat.
			G
Live in a blue house on a blue street,
	F	   C
in a blue town by a blue creek.
			G
I write my blue songs with m blue pen.
                 F		C
I sing the blue notes to my blue friends.
			G
Now I don't know that much about you
	F              C	C-C
but I like you because you are true blue.


Play the same chords......for each verse

And play this in between
---------------------------------------------------------|
---------------------------------------------------------|
-----0----------0------2-----------0---------------------|
----2-----2---0------3-----3----2------------------------|
--3----3-----------3-----3---3---------------------------|
----------3----------------------------------------------|
Comments