Bright Eyes - Sunrise Sunset Chords & Tabs

 

Sunrise Sunset Chords & Tabs

Bright Eyes Chords & Tabs

Version: 1 Type: Tab 0 ratings
1 star 2 stars 3 stars 4 stars 5 stars
comments

Sunrise Sunset Tab

www.saddlecreekrecords.com

band: Bright Eyes
song: Sunrise, Sunset
album: Fevers And Mirrors

/= slide


verse/intro
e|-----5-5----5-5-----5-5----5-5-|
B|-----5-5----5-5-----5-5----5-5-|
G|-----5-5----5-5-----5-5----5-5-|
D|---7------6-------7------6-----|  
A|-------------------------------|
E|-------------------------------|
Sunrise, Sunset....
[ Tab from: http://www.guitartabs.cc/tabs/b/bright_eyes/sunrise_sunset_tab.html ]
Chorus
e|--0------5-5-5-5-5-5-5-5--------|
B|--0------5-5-5-5-5-5-5-5--------|
G|--1------5-5-5-5-5-5-5-5--------|
D|--2-x12--7-7-6-6-7-7-6-6--------|(x2)
A|--2-----------------------------|
E|--0-----------------------------|
(up down strokes)

Solo thing after the 1st chorus
e|-0------4-5-5/7-5-4-4h5-----------------|
B|-5/6-5------------------6--5--3--5h6-5--| 
G|----------------------------------------| 
D|----------------------------------------|
A|----------------------------------------|
E|----------------------------------------| 

thats what i have so far 
I'm up for corrections
Comments