Bright Eyes - Perfect Sonnet Chords & Tabs

 

Perfect Sonnet Chords & Tabs

Bright Eyes Chords & Tabs

Version: 1 Type: Bass Tab 0 ratings
1 star 2 stars 3 stars 4 stars 5 stars
comments

Perfect Sonnet Bass Tab

Chorus 1
g----------------------------------------------------------------|
d----------------------------------------------------------------|
a--------------------------------------------------5--5---5---5--|
e-----------------3-3-3-3-3-3-3-3-5------------------------------|


g---------------------------------|
d---------------------------------|
a---------------------------------|
e-1---------------3-3-3-3-3-3-3-3-|

Verse
g-----------------------------------------------------------------|
d-----------------------------------------------------------------|
a-3-3-3-3-3-3-3-3-3-3-3-3-3-3-3-3---------------------------------|
e---------------------------------0-0-0-0-0-0-0-0-0-0-0-0-0-0-0-0-|

g-----------------------------------------------------------------|
d-----------------------------------------------------------------|
a---------------------------------5-5-5-5-5-5-5-5-5-5-5-5-5-5-5-5-|
e-5-5-5-5-5-5-5-5-5-5-5-5-5-5-5-5---------------------------------|


repeat twice

Chorus 2
g-----------------------------------------------------------------|
d-----------------------------------------------------------------|
a-------------------------------------------------5-5-5-5-5-5-5-5-|
e-1-1-1-1-1-1-1-1-3-3-3-3-3-3-3-3-5-5-5-5-5-5-5-5-----------------|


g----------------------------------------------------------------|
d----------------------------------------------------------------|
a----------------------------------------------------------------|
e1-1-1-1-1-1-1-1--3-3-3-3-3-3-3-3-5------------------------------|

[ Tab from: http://www.guitartabs.cc/tabs/b/bright_eyes/perfect_sonnet_btab.html ]
Third Verse:  Come in on "ONce" of "ANd once you knew a girl and you .."
g-----------------------------------------------------------------|
d-----------------------------------------------------------------|
a-3-3-3-3-3-3-3-3-3-3-3-3-3-3-3-3---------------------------------|
e---------------------------------0-0-0-0-0-0-0-0-0-0-0-0-0-0-0-0-|

g-----------------------------------------------------------------|
d-----------------------------------------------------------------|
a---------------------------------5-5-5-5-5-5-5-5-5-5-5-5-5-5-5-5-|
e-5-5-5-5-5-5-5-5-5-5-5-5-5-5-5-5---------------------------------|


Last Chorus
g-----------------------------------------------------------------|
d-----------------------------------------------------------------|
a-------------------------------------------------5-5-5-5-5-5-5-5-|
e-1-1-1-1-1-1-1-1-3-3-3-3-3-3-3-3-5-5-5-5-5-5-5-5-----------------|


g---------------------------------|
d---------------------------------|
a---------------------------------|
e1-1-1-1-1-1-1-1--3-3-3-3-3-3-3-3-|

Last verse
g-----------------------------------------------------------------|
d-----------------------------------------------------------------|
a-3-3-3-3-3-3-3-3-3-3-3-3-3-3-3-3---------------------------------|
e---------------------------------0-0-0-0-0-0-0-0-0-0-0-0-0-0-0-0-|

g-----------------------------------------------------------------|
d-----------------------------------------------------------------|
a---------------------------------5-5-5-5-5-5-5-5-5-5-5-5-5-5-5-5-|
e-5-5-5-5-5-5-5-5-5-5-5-5-5-5-5-5---------------------------------|
Repeat three times then end with

g----------------------------------------------------------------|
d----------------------------------------------------------------|
a-3--------------------------------------------------------------|
e----------------------------------------------------------------|
Comments