Bright Eyes - Padriac Prince Chords & Tabs

 

Padriac Prince Chords & Tabs

Bright Eyes Chords & Tabs

Version: 1 Type: Tab 0 ratings
1 star 2 stars 3 stars 4 stars 5 stars
comments

Padriac Prince Tab

Played in standard tuning

Intro:

E------0------------------------------|
B------0-----0---0--0-----------------|
G------5-------5---5--5---------------|
D------7---7--------------------------|
A------0------------------------------|
E-------------------------------------|

-------0------------------------------|
-------0----0---0--0------------------|
-------4----4---4--4------------------|
-------5--5---5---5--5----------------|
--------------------------------------|
--------------------------------------|

-------0------------------------------|
-------0----0---0---0-----------------|
-------2----2---2---2-----------------|
-------3--3---3---3---3---------------|
--------------------------------------|
--------------------------------------|


--------------------------------------|
-------0----0---0---0-----------------|
-------1----1---1---1-----------------|
-------2--2---2---2---2---------------|
-------2------------------------------|
--------------------------------------|

Verse: The verse has the same exact chords as the intro, except with a different ending chord:

E------0------------------------------|
B------0-----0---0--0-----------------|
G------5-------5---5--5---------------|
D------7---7--------------------------|
A------0------------------------------|
E-------------------------------------|
      I had a brother once,


E-------0-------------------------------|
B-------0----0---0--0-------------------|
G-------4----4---4--4-------------------|
D-------5--5---5---5--5-----------------|
A---------------------------------------|
E---------------------------------------|
     He drowned, in a bathtub


E-------0------------------------------|
B-------0----0---0---0-----------------|
G-------2----2---2---2-----------------|
D-------3--3---3---3---3---------------|
A--------------------------------------|
E--------------------------------------|
    Before he'd ever learned,

E--------------------------------------|
B-------0----0---0---0-----------------|
G-------1----1---1---1-----------------|
D-------0--0---0---0---0---------------|
A--------------------------------------|
E--------------------------------------|
         How......


Repeat that last tab for the whole of the first verse and in the second verse as well, 
that's the basis of the song.

Here's the chorus chords, just try to study the strumming patterns from the song and you'll get it:


E----0---------------------------------|
B----1---------------------------------|
G----2---------------------------------|
D----2---------------------------------|
A----0---------------------------------|
E--------------------------------------|
    So tonight to celebrate, I will...

E----0-----------------------------------|
B----0-----------------------------------|
G----2-----------------------------------|
D----3-----------------------------------|
A----3-----------------------------------|
E----1-----------------------------------|
    .........

E----0----------------------------------|
B----0----------------------------------|
G----0----------------------------------|
D----0----------------------------------|
A----2----------------------------------|
E----3----------------------------------|
   I will poison myself

E----0---------------------------------|
B----1---------------------------------|
G----2---------------------------------|
D----2---------------------------------|
A----0---------------------------------|
E--------------------------------------|
Another coughing, shaking fit in a bath

E--------------------------------------|
B--------------------------------------|
G----2---------------------------------|
D----3---------------------------------|
A----3---------------------------------|
E----1---------------------------------|
   ..room
[ Tab from: http://www.guitartabs.cc/tabs/b/bright_eyes/padriac_prince_tab.html ]
E----0----------------------------------|
B----0----------------------------------|
G----0----------------------------------|
D----0----------------------------------|
A----2----------------------------------|
E----3----------------------------------|
 That is spinning...


E----0-----------------------------------|
B----1-----------------------------------|
G----0-----------------------------------|
D----2-----------------------------------|
A----3-----------------------------------|
E----------------------------------------|
   And I close the

E----0----------------------------------|
B----0----------------------------------|
G----0----------------------------------|
D----0----------------------------------|
A----2----------------------------------|
E----3----------------------------------|
   door, is there some

E-----0----------------------------------|
B-----1----------------------------------|
G-----2----------------------------------|
D-----2----------------------------------|
A-----0----------------------------------|
E----------------------------------------|
   better place I could be

E----------------------------------------|
B----------------------------------------|
G-----2----------------------------------|
D-----3----------------------------------|
A-----3----------------------------------|
E-----1----------------------------------|
   heading t'wards

E----0-----------------------------------|
B----1-----------------------------------|
G----0-----------------------------------|
D----2-----------------------------------|
A----3-----------------------------------|
E----------------------------------------|
   Sickness in

E----0----------------------------------|
B----0----------------------------------|
G----0----------------------------------|
D----0----------------------------------|
A----2----------------------------------|
E----3----------------------------------|
   sleep, turning me

E-----0----------------------------------|
B-----1----------------------------------|
G-----2----------------------------------|
D-----2----------------------------------|
A-----0----------------------------------|
E----------------------------------------|
   cold...


(Repeat chords for second chorus)

Ending chords:


E-----0-----------------------------------|
B-----1-----------------------------------|
G-----2-----------------------------------| x4
D-----2-----------------------------------|
A-----0-----------------------------------|
E-----------------------------------------|


E-----0---------------------------------|
B-----0---------------------------------|
G-----1---------------------------------| x2
D-----2---------------------------------|
A-----2---------------------------------|
E-----0---------------------------------|


E-----0---------------------------------|
B-----1---------------------------------|
G-----2---------------------------------|x4
D-----2---------------------------------|
A-----0---------------------------------|
E---------------------------------------|


E-----0---------------------------------|
B-----0---------------------------------|
G-----1---------------------------------|x3
D-----2---------------------------------|
A-----2---------------------------------|
E-----0---------------------------------|

E-----0----------------------------------|
B-----1----------------------------------|
G-----2----------------------------------|x4
D-----2----------------------------------|
A-----0----------------------------------|
E----------------------------------------|

E-----0---------------------------------|
B-----0---------------------------------|
G-----1---------------------------------|x2
D-----2---------------------------------|
A-----2---------------------------------|
E-----0---------------------------------|

E-----0-----------------------------------|
B-----1-----------------------------------|
G-----2-----------------------------------| x4
D-----2-----------------------------------|
A-----0-----------------------------------|
E-----------------------------------------|

E-----0---------------------------------|
B-----0---------------------------------|
G-----1---------------------------------| x7
D-----2---------------------------------|
A-----2---------------------------------|
E-----0---------------------------------|
Comments