Bright Eyes - Padriac Prince Chords & Tabs

 

Padriac Prince Chords & Tabs

Bright Eyes Chords & Tabs

Version: 1 Type: Bass Tab 0 ratings
1 star 2 stars 3 stars 4 stars 5 stars
comments

Padriac Prince Bass Tab

   
intro
G:-----------------|
D:-----------------| repeat
A:-----------------|
E:-5-5-3-3-1-1-0-0-|

:49
G:---------------------------------------------------|
D:---------------------------------------------------| repeat
A:------3---3-------7---77-5h7-5---5-----5-5h75-05h7-|
E:-01h3--5-5-5-35h7--7-7--------5-5-5-5-0------------|

1:15
G:------------------------------------------------------|
D:---------------------3-3333-320-----------------------| repeat
A:-------------------------------3----------------------|
E:-5-5555-5555-5555-555-----------3-3333-/151515141210-|

1:34
G:----------------------------------------------------|
D:----------------------------------------------------|
A:-3-3333-333-------5p3---------3h55h78-8888-10p8-----|
E:-----------3-333-3---5p35-5555-----------------10p8-|

G:----------------------------------------------|
D:--------5p3p0---------------------------------|
A:-3-3333----------------3h5----------2h3-------|
E:-------------3-3333-3h5---5-5555-3h5---5-5555-|
[ Tab from: http://www.guitartabs.cc/tabs/b/bright_eyes/padriac_prince_btab.html ]
1:45
G:-----------------------------------------------------------|
D:-------------5p3p0-----------------------------------------|
A:----0h23-3333------------5p3---------3h55h78-8888-10p8-----|
E:-2h3--------------3-3333----5p35-5555-----------------10p8-|

2:04
G:-----------------------------------------------|
D:--------5p3p0----------------------------------|
A:-3-3333----------------3h5----------2h3--------|
E:-------------3-3333-3h5---5-5555-3h5---5-5555*-|

2:13
G:-----------------|
D:-----------------| repeat
A:-----------------|
E:-5-5-3-3-1-1-0-0-|

2:29
G:---------------------------------------------------|
D:---------------------------------------------------| repeat
A:------3---3-------7---77-5h7-5---5-----5-5h75-05h7-|
E:-01h3--5-5-5-35h7--7-7--------5-5-5-5-0------------|

3:20
G:----------------------------------------------|
D:---------------------3-3333-320---------------| repeat
A:-------------------------------3-------3h55h8-|
E:-5-5555-5555-5555-555-----------3-3333--------|

3:38
G:-------------------------------------------------------------|
D:-------------------------------------------------------------|
A:-------------------------------------------------------------|
E:-2h355-5-0-0-2h355-5-0-0-0-2h355-5-0-0-2h355-5-0-0-0-0-0-0-0-|
Comments