Bright Eyes - Lover I Dont Have To Love Chords & Tabs

 

Lover I Dont Have To Love Chords & Tabs

Bright Eyes Chords & Tabs

Version: 5 Type: Tab 0 ratings
1 star 2 stars 3 stars 4 stars 5 stars
comments

Lover I Dont Have To Love Tab

----------------------------------------------------------------------------
		LOVER I DON'T HAVE TO LOVE - Bright Eyes
----------------------------------------------------------------------------
Tabbed by: Tien
Email: kenshi_89@hotmail.com

Tuning:Standard

Well this song is played on a keyboard so i pretty much tabbed the keyboard part of it
and it sounds right like the keyboard part.. This is my first tab that i bothered to
post... Hopefully this is to everyones satisfaction... Email me if u got any questions
or comments. Have a good day.

Refrain 1

e|------0------------------0------------------------------------|
B|----1---1-0-0-1-2-1----1---1-----1----------------------------|
G|--2------------------2-------2-----2--------------------------|
D|-------------------------------3------------------------------|  
A|--------------------------------------------------------------|
E|--------------------------------------------------------------|

Refrain 2

e|--------------------------------------------------------------|
B|----------0----------------0----------------------------------|
G|----1-2-1---1-2-1----1-2-1---1-2-1----------------------------|
D|--2----------------2------------------------------------------| 
A|--------------------------------------------------------------|
E|--------------------------------------------------------------|

Refrain 3 ( im not so sure about this)

e|--3-0-3---0---------------------------------------------------|
B|--------1-----1------1----------------------------------------|
G|------------2---2------2--------------------------------------|
D|-------------------3------------------------------------------| 
A|--------------------------------------------------------------|
E|--------------------------------------------------------------|

Refrain 4
[ Tab from: http://www.guitartabs.cc/tabs/b/bright_eyes/lover_i_dont_have_to_love_tab_ver_5.html ]
e|--------------------------------------------------------------|
B|-------------------3-3-3-3---1-1-1-1--------------------------|
G|--2-2-2-2-2-2-2-2---------------------------------------------|
D|--------------------------------------------------------------|  
A|--------------------------------------------------------------|
E|--------------------------------------------------------------|

Refrain 5

e|------0-------------------------------------------------------|
B|----1---1-0-0-1-2-1---0-0-3-1---------------------------------|
G|--2--------------------------2--------------------------------|
D|--------------------------------------------------------------|  
A|--------------------------------------------------------------|
E|--------------------------------------------------------------|

Refrain 6

e|------0-------------------0-----------------------------------|
B|----1---1-0-0-1-2-1-----1----1--------------------------------|
G|--2-------------------2--------0-2----------------------------|
D|--------------------------------------------------------------|  
A|--------------------------------------------------------------|
E|--------------------------------------------------------------|

Refrain 7

e|------0---------------0-----0---------------------------------|
B|----1---1-0-0-1-2-1-----3-1---3-1-----------------------------|
G|--2-------------------------------1(hold)---------------------|
D|--------------------------------------------------------------|  
A|--------------------------------------------------------------|
E|--------------------------------------------------------------|


Intro 
Refrain 1  x2 
Refrain 2

Verse 2
Refrain 1  x4
Refrain 2 
Refrain 1  x4
Refrain 2

Chorus
Refrain 1  x3
Refrain 2

Verse 2
*Long Silence*
Refrain 1  x4
Refrain 2 

Chorus
Refrain 1  x3
Refrain 2

Verse 3
Refrain 3  x3
Refrain 2 
Refrain 4  x2
Refrain 5  x2
Refrain 6
Refrain 7

If there is anything i tabbed wrong im sorry this is my first tab... send me a
comment/email to tell me whats wrong with it
Comments