Bright Eyes - Lover I Dont Have To Love Chords & Tabs

 

Lover I Dont Have To Love Chords & Tabs

Bright Eyes Chords & Tabs

Version: 3 Type: Tab 0 ratings
1 star 2 stars 3 stars 4 stars 5 stars
comments

Lover I Dont Have To Love Tab

Lover I don't have to love
Bright Eyes
dantansy

Pre verse
|-----------------------------------------|
|-----------------------------------------|
|------13--14--13--15--13--14--13---------|
|--14-------------------------------------|
|-----------------------------------------|
|-----------------------------------------|

Verse/Chorus
|----------------------------------------|
|-----13-17-13--~12-13--15-13------------|
|-14-------------------------------------|
|----------------------------------------|
|----------------------------------------|
|----------------------------------------|

|-------------------------------------------|
|------13--17--13~12---------13-------------|
|--14--------------------14----------14-----|
|-----------------------------15------------|
|-------------------------------------------|
|-------------------------------------------|
[ Tab from: http://www.guitartabs.cc/tabs/b/bright_eyes/lover_i_dont_have_to_love_tab_ver_3.html ]
"but life's no story book"
|----15---13----12----------------------------------|
|--------------------------15--13------13-----------|
|-14---14----14-----14-------------14-----14--------|
|---------------------------------------------------|
|---------------------------------------------------|
|---------------------------------------------------|

"then hurt me~"
|-----------------------------------------------------------------------|
|------------------------------------15-15-15-15--13-13-13-13-----------|
|--14-14-14-14--13-13-13-13---------------------------------------------|
|-----------------------------------------------------------------------|
|-----------------------------------------------------------------------|
|-----------------------------------------------------------------------|

Last chord
|---0------|
|---12-----|
|---13-----|
|---0------|
|----------|
|----------|

This is a rad song. It's fun to play too. I wish I had written it. If I had
I would have many women fans and that is always a good thing...  (sigh)

~dantansy
Comments