Bright Eyes - Loose Leaves Chords & Tabs

 

Loose Leaves Chords & Tabs

Bright Eyes Chords & Tabs

Version: 1 Type: Tab 0 ratings
1 star 2 stars 3 stars 4 stars 5 stars
comments

Loose Leaves Tab

Intro

E |---------------------|
B |--4-4-4-4---7-7-7-7--|
G |--4-4-4-4---6-6-6-6--|
D |---------------------|
A |---------------------|
E |---------------------|

Main Riff

E |------------------4--------------|
B |----4-7---7---7-----4---7---7----|
G |--4-----4---4---4-----4---4---4--|
D |---------------------------------|
A |---------------------------------|
E |---------------------------------|

E |----------------------------|
B |----4-7---7---7---5p4---4---|
G |--4-----4---4---4-----4-----|
D |----------------------------|
A |----------------------------|
E |----------------------------|
[ Tab from: http://www.guitartabs.cc/tabs/b/bright_eyes/loose_leaves_tab.html ]
E |----------------------------------------------------------|
B |----4------4------4------4------7------7------7------7----|
G |--4---4--4---4--4---4--4---4--4---6--6---6--6---6--6---6--|
D |----------------------------------------------------------|
A |----------------------------------------------------------|
E |----------------------------------------------------------|

Change-up

E |-----------------|
B |--0-0-0-0-0-0-0--|
G |--4-4-4-4-4-4-4--|
D |-----------------|
A |-----------------|
E |-----------------|

E |--0-0-0-0-2-2-2-2--------------------------------------------------------------------|
B |------------------4-4-4-4------4------4------7------7------7------7------7------7----|
G |--------------------------4--4---4--4---4--4---6--6---6--6---6--6---6--6---6--6---6--|
D |-------------------------------------------------------------------------------------|
A |-------------------------------------------------------------------------------------|
E |-------------------------------------------------------------------------------------|


"They say true..." part

E |--------------------------------------|
B |-----10-12-11-9-11-7---10-12-11-9-11--|
G |--4-----------------------------------|
D |--------------------------------------|
A |--------------------------------------|
E |--------------------------------------|
Comments