Bright Eyes - Landlocked Blues Chords & Tabs

 

Landlocked Blues Chords & Tabs

Bright Eyes Chords & Tabs

Version: 3 Type: Tab

Landlocked Blues Tab

song played with capo at 3rd fret
this tab is NOT RELATIVE TO CAPO

e|-----------------------6--6h8--6-6---6-6h8-6-8--6p3----6p3-----------------|
B|----6/8--6--6/8-----8-------------------------------8------8--8\6----------|
G|--8-------------8----------------------------------------------------------|
D|---------------------------------------------------------------------------|
A|---------------------------------------------------------------------------|
E|---------------------------------------------------------------------------|
[ Tab from: http://www.guitartabs.cc/tabs/b/bright_eyes/landlocked_blues_tab_ver_3.html ]
e|---------------------------------------------------------------------------|
B|---------6/8--8\6----------------------------------------------------------|
G|--3h5-8------------8-------------------------------------------------------|
D|---------------------------------------------------------------------------|
A|---------------------------------------------------------------------------|
E|---------------------------------------------------------------------------|

dont get confused and think this isnt enough, cause theres a bass part and i almost 
say another guitar part, but just listen and youll see its pretty dead on