Bright Eyes - Jetsabel Removes The Undesirables Chords & Tabs

 

Jetsabel Removes The Undesirables Chords & Tabs

Bright Eyes Chords & Tabs

Version: 1 Type: Tab 0 ratings
1 star 2 stars 3 stars 4 stars 5 stars
comments

Jetsabel Removes The Undesirables Tab

   
-------------------------------------------------
Bright Eyes - Jetsabel Removes the Undesirables
(from the Japanese version of Fevers and Mirrors)
-------------------------------------------------
tabbed by Matt LeFevers (www.myspace.com/MattLeFevers)

Verse:
E-5----5----5----5-------------------------|
B-6----6----6----6-----5----5----5----5----|
G-7----7----7----7-----6----6----6----6----|
D---7----7----7----7---7----7----7----7----|
A---5----5----5----5-----7----7----7----7--|
E------------------------5----5----5----5--|

which goes a lot of times, then the end is always
E---------------------|
B-6~------------------|
G-7~------6~----------|
D-7~------7~------7~--|
A-5~------7~------5~--|
E---------5~----------|

The instrumental bridge thing:
E--1-1-1-1-1-1-1-1-1--0-0-0-0-0-0-0-0--4-4-4-4-4-4-4-4-------------------|
B--3-3-3-3-3-3-1h3h1--1-1-1-1-1-1-1-1--4-4-4-4-4-4-4-4--3-3-3-3-3-3-3-3--|
G--2-2-2-2-2-2-2-2-2--0-0-0-0-0-0-0-0--5-5-5-5-5-5-5-5--1-1-1-1-1-1-1-1--|
D--0-0-0-0-0-0-0-0-0--2-2-2-2-2-2-2-2--6-6-6-6-6-6-6-6--0-0-0-0-0-0-0-0--|
A---------------------3-3-3-3-3-3-3-3--6-6-6-6-6-6-6-6-------------------|
E--------------------------------------4-4-4-4-4-4-4-4-------------------|
[ Tab from: http://www.guitartabs.cc/tabs/b/bright_eyes/jetsabel_removes_the_undesirables_tab.html ]
E--1-1-1-1-1-1-1-1-1--0-0-0-0-0-0-0-0--4-4-4-4-4-4-4-4----------------|
B--1h3h1-3-3-3-1h3h1--1-1-1-1-1-1-1-1--4-4-4-4-4-4-4-4--3~---2~---3~--|
G--2-2-2-2-2-2-2-2-2--0-0-0-0-0-0-0-0--5-5-5-5-5-5-5-5--1~---2~---2~--|
D--0-0-0-0-0-0-0-0-0--2-2-2-2-2-2-2-2--6-6-6-6-6-6-6-6--0~---2~---0~--|
A---------------------3-3-3-3-3-3-3-3--6-6-6-6-6-6-6-6-------0~-------|
E--------------------------------------4-4-4-4-4-4-4-4----------------|

Verse as usual, then the other bridge:

E-0-0-0-0-0-0-0-0-4-4-4-4-4-4-4-4--9--9--9--9--9--9--9--9-----------------|
B-2-2-2-2-2-2-2-2-6-6-6-6-6-6-6-6-10-10-10-10-10-10-10-10-0-0-0-0-0-0-0-0-|
G-2-2-2-2-2-2-2-2-4-4-4-4-4-4-4-4-11-11-11-11-11-11-11-11-1-1-1-1-1-1-1-1-|
D-2-2-2-2-2-2-2-2-6-6-6-6-6-6-6-6-11-11-11-11-11-11-11-11-2-2-2-2-2-2-2-2-|
A-0-0-0-0-0-0-0-0-4-4-4-4-4-4-4-4--9--9--9--9--9--9--9--9-2-2-2-2-2-2-2-2-|
E---------------------------------------------------------0-0-0-0-0-0-0-0-|
  ("Gold and green...torture me...")

Then the Outro:
E--5-5-5-5-5-5-5-5-5-5-5-5-5-5-5-5--|
B--5-5-5-5-5-5-5-5-6-6-6-6-6-6-6-6--|
G--6-6-6-6-6-6-6-6-7-7-7-7-7-7-7-7--|
D--7-7-7-7-7-7-7-7-7-7-7-7-7-7-7-7--|
A--7-7-7-7-7-7-7-7-5-5-5-5-5-5-5-5--|
E--5-5-5-5-5-5-5-5------------------|
Comments