Bright Eyes - Its Cool We Can Still Be Friends Chords & Tabs

 

Its Cool We Can Still Be Friends Chords & Tabs

Bright Eyes Chords & Tabs

Version: 1 Type: Tab 0 ratings
1 star 2 stars 3 stars 4 stars 5 stars
comments

Its Cool We Can Still Be Friends Tab

You can figure out the struming, regular tuning


E--------------------------------|
A-------------3--3---------------|
D---3-3-3-2-0----2---------------|  X4
G-----2----------0---------------|
B-----1----------1---------------|
E-----0----------0---------------|
[ Tab from: http://www.guitartabs.cc/tabs/b/bright_eyes/its_cool_we_can_still_be_friends_tab.html ]
^Play basically the whole song ^

E--------------------------------|
A--3--2--0--0--0--0--------------|
D--2--2--2--2--2--2--------------|
G--0--0--2--3--2--3--------------|
B--1--1--1--1--1--1--------------|
E--0--0--0--0--0--0--------------|

The go back to the first part...


This is how it is played thru the whole song
Comments