Bright Eyes - I Wish I Had A Parachute Chords & Tabs

 

I Wish I Had A Parachute Chords & Tabs

Bright Eyes Chords & Tabs

Version: 1 Type: Tab 0 ratings
1 star 2 stars 3 stars 4 stars 5 stars
comments

I Wish I Had A Parachute Tab

   
BAND  - Bright Eyes
FROM  - Digital Ash in a Digital Urn
SONG  - Theme from Piņata (I Wish I Had A Parachute)

Tabbed out for internet by Varun Chopra  - 06/23/05
Tabbed out on paper by Gilbert Kafka 


     C              Cmaj7              C7
e|---------------------------------|---------------------------------|-
B|----1---------------0------------|---------------------------------|-
G|---------------------------------|----3--------3-------3-----------|-
D|--------2---------------2--------|------2--------2-----------------|-
A|----3-----------------------3----|--------3--------3---------------|-
E|---------------------------------|---------------------------------|-
    F                                  G
e|---------------------------------|---------------------------------|-
B|---------------------------------|---------------0-----------------|-
G|--------------0h2----------------|---------------0-----------------|-
D|---------------------3-----3-----|---------------------0-----0-----|-
A|-----3------------------3--------|-------2----------------2--------|-
E|--1------------------------------|----3----------------------------|-

Repeat everything above once.
[ Tab from: http://www.guitartabs.cc/tabs/b/bright_eyes/i_wish_i_had_a_parachute_tab.html ]
    Am                               D/F#        F
e|---------------------------------|---------0-----------------------|-
B|-------------0h1-----------------|---------------------------------|-
G|------------------2------2-------|---------0-----------0h2---------|-
D|------2---------------2----------|-----0----0-0-------------3---3--|-
A|---0-----------------------------|-----------0----3-----------3----|-
E|---------------------------------|--2-----------1------------------|-
   G
e|------------|
B|------0-----|
G|------0-----|
D|--------0-0-| (Don't hit this last the 2nd time)
A|----2----2--|
E|--3---------|

Repeat everything starting from the Am once.
  
   G         C
e|---------------------------------|----------------*----------------|-
B|-----------------1-----1----1--1-|--1-1-1-1------------------------|-
G|-0---0-------0-----0----0----0---|---------------------------------|-
D|--0---0-0------2-----2----2---2--|-3-2-0---------------------------|-
A|---2---2---3---------------------|-------2-------------------------|-
E|---------------------------------|---------------------------------|-

e|-------------------------|
B|--------1-----1----1---1-|
G|----0-----0----0----0----|
D|------2-----2----2---2---|
A|--3----------------------|
E|-------------------------|

First part (starting with C) is played during the verses. The second part (starting with
Am) is played during the chorus and when the last part (starting with G) is played there
isn't any singing, and then Conor ends the whole song with the the second bar (the one
with the start in it).

In other words play the whole thing along with the song and repeat where ever it says
too and then play the bar with the star.

If you have any questions e-mail me (vc2020atgmail.com) but it's not hard to figure out.
Comments