Bright Eyes - Haligh Haligh A Lie Haligh Chords & Tabs

 

Haligh Haligh A Lie Haligh Chords & Tabs

Bright Eyes Chords & Tabs

Version: 2 Type: Tab 0 ratings
1 star 2 stars 3 stars 4 stars 5 stars
comments

Haligh Haligh A Lie Haligh Tab

   

 bright eyes - haligh, haligh, a lie, haligh  - bright eyes
tabbed by Lewis herd



Verse
e:--------2-----------2-------------------------------------|
g:----------2-----------2----------3-2----------------------|
b:------2-----2-----2-----2--------2-2---------4------------|  
d:----4---------4-0----------0---2-----2----4--4------------|  
a:-----------------------------0------------2--2--2h4p2-----|
e:----------------------------------------------------------|

      "the phone slips from a    loose grip" 


thats the picking pattern for the majority of the song.
its repeated quite a few times then..




Chorus
    B  
e:--2--2--2---2--2--2---2--2--2---2--2--2-----|
g:--2--2--2---2--2--2---2--2--2---2--2--2-----|
b:--4--4--4---4--4--4---4--4--4---4--4--4-----|  
d:--4--4--4---4--4--4---4--4--4---4--4--4-----|  
a:--2--2--2---2--2--2---2--2--2---2--2--2-----|
e:--------------------------------------------|
    d  d  u   u  d  u   u  d  u   u  d  u

" haligh  haligh  haligh  haligh,      this.."


    A
e:--0--0--0---0--0--0---0--0--0---0--0--0-----|
g:--2--2--2---2--2--2---2--2--2---2--2--2-----|
b:--2--2--2---2--2--2---2--2--2---2--2--2-----|  
d:--2--2--2---2--2--2---2--2--2---2--2--2-----|  
a:--0--0--0---0--0--0---0--0--0---0--0--0-----|
e:--x--x--x---x--x--x---x--x--x---x--x--x-----|
    d  d  u   u  d  u   u  d  u   u  d  u

"..weight  it  must  be satisfied,      you.."



    G
e:--3--3--3---3--3--3---3--3--3---3--3--3-----|
g:--3--3--3---3--3--3---3--3--3---3--3--3-----|
b:--0--0--0---0--0--0---0--0--0---0--0--0-----|  
d:--0--0--0---0--0--0---0--0--0---0--0--0-----|  
a:--2--2--2---2--2--2---2--2--2---2--2--2-----|
e:--3--3--3---3--3--3---3--3--3---3--3--3-----|
    d  d  u   u  d  u   u  d  u   u  d  u

"...offer   only  one   reply,         you.." 


    A                      B5 
e:--0--0--0---0--0--0--------------------|
g:--2--2--2---2--2--2--------------------|
b:--2--2--2---2--2--2-------4--4---------|  
d:--2--2--2---2--2--2-------4--4---------|  
a:--0--0--0---0--0--0-------2--2-2h4p2---|
e:--x--x--x---x--x--x--------------------|
    d  d  u   u  d  u   

"..know not what you do."



Then it goes back to the picking from the start.
which is repeated a bit.
and then the chorus
then as the chorus ends it goes into

[ Tab from: http://www.guitartabs.cc/tabs/b/bright_eyes/haligh_haligh_a_lie_haligh_tab_ver_2.html ]
     B             G             A 
e:---2--2--2--2----3--3--3--3----5--5--5--5--5---5-5-5-5-----------|
g:---3--3--3--3----3--3--3--3----5--5--5--5--5---5-5-5-5-----------|
b:---4--4--4--4----4--4--4--4----6--6--6--6--6---6-6-6-6-----------|  
d:---4--4--4--4----5--5--5--5----7--7--7--7--7---7-7-7-7-----------|  
a:---2--2--2--2----5--5--5--5----7--7--7--7--7---7-7-7-7-----------|
e:-----------------3--3--3--3----5--5--5--5--5---5-5-5-5-----------|
     d  d  d  d    d  d  d  d    d  d  d  d  d   d u u d

"..talk in the mirror ,to the   stranger that appears  our conversations


     B              G                  A 
e:---2--2--2--2--2----3--3--3--3--3----5--5--5--5--5--5-5-5-5-----------|
g:---3--3--3--3--3----3--3--3--3--3----5--5--5--5--5--5-5-5-5-----------|
b:---4--4--4--4--4----4--4--4--4--4----6--6--6--6--6--6-6-6-6-----------|  
d:---4--4--4--4--4----5--5--5--5--5----7--7--7--7--7--7-7-7-7-----------|  
a:---2--2--2--2--2----5--5--5--5--5----7--7--7--7--7--7-7-7-7-----------|
e:--------------------3--3--3--3--3----5--5--5--5--5--5-5-5-5-----------|
     d  d  u  u  d    d  d  u  u  d    d  d  u  u  d  u u d u

"    are circles  ,always one-sided    nothing is clear." 




               B             G             A 
e:-------------2--2--2--2----3--3--3--3----5--5--5--5--5---5-5-5-5-----------|
g:-------------3--3--3--3----3--3--3--3----5--5--5--5--5---5-5-5-5-----------|
b:-------------4--4--4--4----4--4--4--4----6--6--6--6--6---6-6-6-6-----------|  
d:-------------4--4--4--4----5--5--5--5----7--7--7--7--7---7-7-7-7-----------|  
a:-------------2--2--2--2----5--5--5--5----7--7--7--7--7---7-7-7-7-----------|
e:---------------------------3--3--3--3----5--5--5--5--5---5-5-5-5-----------|
               d  d  d  d    d  d  d  d    d  d  d  d  d   d u u d

"..except you keep coming back to this     meaning that i lack"
 

                             B                  G                   A 
e:------------------------------2------------------3----------------5--5---|
g:------------------------------3------------------3----------------5--5---|
b:------------------------------4------------------4----------------6--6---|  
d:---------------------------4--4------------------5----------------7--7---|  
a:---------------------------2--2---------------5--5----------------7--7---|
e:----------------------------------------------3--3----------------5--5---|
                              

" you said the choices were given, now we must live them , or just not live. 


e:--------------------------|
g:--------------------------|
b:--------------------------|  
d:----------4---------------|  
a:----------4---------------|
e:--2h4p2-2-2---------------|

"but do you want that?"


there might be a few mistakes . im sorry if there are. 
email me with any comments / corrections at lewis_herd@hotmail.com

Comments