Bright Eyes - Gold Mine Gutted Chords & Tabs

 

Gold Mine Gutted Chords & Tabs

Bright Eyes Chords & Tabs

Version: 1 Type: Tab 0 ratings
1 star 2 stars 3 stars 4 stars 5 stars
comments

Gold Mine Gutted Tab

   
OK. I figured this out with the help of my ears and a guitar tuner. It's perfectly 
just put the whole thing in different octaves.

The wobbly synthy chords that come in at the start before the little piano riff are C, 
B and F.

Then the piano lick on the Digital Ash CD is:
[ Tab from: http://www.guitartabs.cc/tabs/b/bright_eyes/gold_mine_gutted_tab.html ]
E------------------------------------------------------|
B-----10-10--8-6-5-3----6-6--5-3-1-0-0-8-8--6-6-3-6----|
G--9-----------------2---------------------------------|
D------------------------------------------------------|
A------------------------------------------------------|
E------------------------------------------------------|

Live, Conor plays a variation, which I figured out as:

E------------------------------------------------------|
B-----10-10--8-6-5-3----6-6--5-3-1-0-------------------|
G--9-----------------2---------------0--9-9-7-5--------|
D------------------------------------------------7-----|
A------------------------------------------------------|
E------------------------------------------------------|

I hope this helps you all play one of the best songs for Digital Ash. Along with the 
someone else posted, that's basically the whole song I guess. I'll try and figure out the 
melody sometime.
Comments