Bright Eyes - First Day Of My Life Chords & Tabs

 

First Day Of My Life Chords & Tabs

Bright Eyes Chords & Tabs

Version: 3 Type: Tab 0 ratings
1 star 2 stars 3 stars 4 stars 5 stars
comments

First Day Of My Life Tab

   
capo on 4


intro: C E Am F G C *2

verse: C E Am F G C
       C E Am D7 G    *2

chorus: C G Am
	F G
	C C/B Am
	Dminsus2

break: C G Am
       Dminsus2 Fminsus2 Fminsus2+

verse:*2

chorus:

bridge: C E Am
	Dminsus2 C

End: E Am, Dminsus2 Fminsus2 Fminsus2+
     C E Am Dminsus2 Fminsus2 Fminsus2+ C


verse vox:

-------------------------------------------------------|
-9-9-9-7-9-7-9------------10-10-9-7---------7/9--------|
---------------8/9------------------9-9-8-9------------|
-------------------------------------------------------|
-------------------------------------------------------|
-------------------------------------------------------|

-------7------7-----------7/9------------/9--------7-----|
-7/9-9-9-9-9---9-9-9-9-9-------/9-7--------9-7-----------|
------------------------------------9----------9---------|
---------------------------------------------------------|
---------------------------------------------------------|
---------------------------------------------------------|


chorus:
[ Tab from: http://www.guitartabs.cc/tabs/b/bright_eyes/first_day_of_my_life_tab_ver_3.html ]
---------------------------------------------------------------------------------------------------|
--------------------------10-10-10-9-7-7---7-9-9--7-7----------7-7-9-9--10--------7-7-9-9-10-------|
-9-9-11-13-11-13--9-----9----------------9------------9----9-9-------------9--9-9--------------8/9-|
---------------------------------------------------------------------------------------------------|
---------------------------------------------------------------------------------------------------|
---------------------------------------------------------------------------------------------------|

-------------------------------------------------------|
-7h9-7-------------------------------------------------|
-------8/9---------------------------------------------|
-------------------------------------------------------|
-------------------------------------------------------|
-------------------------------------------------------|

final chorus bit

-------------------------------------------------------|
-------7-7-9-9--10--------7-7-9-9-10-9---7/9-7/9**-----|
---9-9-------------9--9-9------------------------------|
-------------------------------------------------------|
-------------------------------------------------------|
-------------------------------------------------------|

-------------------------------------------------------|
-7-----------------------------------------------------|
---9-8-------9-8---------------------------------------|
-------7---------7-------------------------------------|
-------------------------------------------------------|
-------------------------------------------------------|

andeh, www.the-rails.co.uk
Comments