Bright Eyes - First Day Of My Life Chords & Tabs

 

First Day Of My Life Chords & Tabs

Bright Eyes Chords & Tabs

Version: 2 Type: Tab 0 ratings
1 star 2 stars 3 stars 4 stars 5 stars
comments

First Day Of My Life Tab

   
First Day of My Life
Bright Eyes

Tabbed by: Kendall Weaver
Email: kendall_weaver@yahoo.com

Notes: This is a fingerpicking version I came up with after listening to the song a few
times.  It works particularly well and isn't very difficult.  The style is called "Travis
Picking" and another example is "Dust in the Wind" by Kansas.  It shouldn't be hard to
put the lyrics to it once you get it figured out.  Capo according to your voice range, I
have to play it open in order to sing it.

The song follows this basic structure:

Intro
Intro
A Verse
A Verse
B Verse
Bridge
A Verse
A Verse
B Verse
Fill
Bridge
Bridge
Ending

Alright here it is:

Intro

e|---------0-----|---------0-----|---------0-----|---------0-----|
B|-1-------------|-0-------------|-1-------------|-1-------------|
G|-------0-----0-|-------1-----1-|-------2-----2-|-------2-----2-|
D|-----2-----2---|-----2-----2---|-----2-----2---|-----2-----2---|
A|-3-------3-----|-2-------2-----|-0-------0-----|-0-------0-----|
E|---------------|---------------|---------------|---------------|

e|-1-------3-----|-3-------------|-0-------0-----|---------0-----|
B|-------1-----1-|-3-------3-----|-1-------------|-1-------------|
G|-----2-----2---|-------0-----0-|-------0-----0-|-------0-----0-|
D|-3-------3-----|-----0-----0---|-----2-----2---|-----2-----2---|
A|---------------|-2-------2-----|-3-------3-----|-3-------3-----|
E|---------------|---------------|---------------|---------------|

A Verse

e|---------0-----|---------0-----|---------0-----|---------0-----|
B|-1-------------|-0-------------|-1-------------|-1-------------|
G|-------0-----0-|-------1-----1-|-------2-----2-|-------2-----2-|
D|-----2-----2---|-----2-----2---|-----2-----2---|-----2-----2---|
A|-3-------3-----|-2-------2-----|-0-------0-----|-0-------0-----|
E|---------------|---------------|---------------|---------------|

e|-1-------1-----|-3-------3-----|-0-------0-----|---------0-----|
B|-------1-----1-|-------3-----3-|-1-------------|-1-------------|
G|-----2-----2---|-----4-----4---|-------0-----0-|-------0-----0-|
D|-3-------3-----|-5-------5-----|-----2-----2---|-----2-----2---|
A|---------------|---------------|-3-------3-----|-3-------0-----|
E|---------------|---------------|---------------|---------------|

e|---------0-----|---------0-----|---------0-----|---------0-----|
B|-1-------------|-0-------------|-1-------------|-1-------------|
G|-------0-----0-|-------1-----1-|-------2-----2-|-------2-----2-|
D|-----2-----2---|-----2-----2---|-----2-----2---|-----2-----2---|
A|-3-------3-----|-2-------2-----|-0-------0-----|-0-------0-----|
E|---------------|---------------|---------------|---------------|
[ Tab from: http://www.guitartabs.cc/tabs/b/bright_eyes/first_day_of_my_life_tab_ver_2.html ]
e|-2-------2-----|-2-------2-----|-3-------3-----|-3-------------|
B|-------3-----3-|-------3-----3-|-0-------------|-0-------------|
G|-----2-----2---|-----2-----2---|-------0-----0-|---------0-----|
D|-0-------0-----|-0-------0-----|-----0-----0---|-------0-------|
A|---------------|---------------|-2-------2-----|-----2---------|
E|---------------|---------------|---------------|-3-------------|

B verse

e|-0-------------|---------0-----|---------0-----|-1-------1-----|
B|-1------3------|-1-------------|-1-------------|-------1-----1-|
G|-0------0------|-2-----2-----2-|-------2-----2-|-----2-----2---|
D|-2------0------|-2---2-----2---|-----2-----2---|-3-------3-----|
A|-3------2------|-0-------0-----|-0-------0-----|---------------|
E|---------------|---------------|---------------|---------------|

e|-3-------3-----|-0-------------|---------0-----|---------0-----|
B|-------3-------|-1------3------|-1-------------|-1-------------|
G|-----4-----4---|-0------0------|-2-----2-----2-|-------2-----2-|
D|-5-------5-----|-2------0------|-2---2-----2---|-----2-----2---|
A|---------------|-3------2------|-0-------0-----|-0-------0-----|
E|---------------|---------------|---------------|---------------|

e|---------0-----|---------0-----|---------0-----|---------0-----|
B|-3-------------|-3-------------|-3-------------|-3-------------|
G|-------2-----2-|-------2-----2-|-------2-----2-|-------2-----2-|
D|-----3-----3---|-----3-----3---|-----3-----3---|-----3-----3---|
A|-0-------0-----|-0-------0-----|-0-------0-----|-0-------0-----|
E|---------------|---------------|---------------|---------------|

Bridge

e|---------0-----|---------0-----|---------0-----|---------0-----|
B|-1-------------|-0-------------|-1-------------|-1-------------|
G|-------0-----0-|-------1-----1-|-------2-----2-|-------2-----2-|
D|-----2-----2---|-----2-----2---|-----2-----2---|-----2-----2---|
A|-3-------3-----|-2-------2-----|-0-------0-----|-0-------0-----|
E|---------------|---------------|---------------|---------------|

e|---------0-----|---------0-----|---------------|-8-------8-----|
B|-3-------------|-3-------------|-6-------6-----|-------6-----6-|
G|-------2-----2-|-------2-----2-|-------5-----5-|-----5-----5---|
D|-----3-----3---|-----3-----3---|-----6-----6---|-6-------6-----|
A|-0-------0-----|-0-------0-----|-0-------0-----|---------------|
E|---------------|---------------|---------------|---------------|

Fill

e|---------0-----|---------0-----|---------0-----|---------0-----|
B|-1-------------|-0-------------|-1-------------|-1-------------|
G|-------0-----2-|-------1-----1-|-------2-----2-|-------2-----2-|
D|-----2-----3---|-----2-----2---|-----2-----2---|-----2-----2---|
A|-3-------3-----|-2-------2-----|-0-------0-----|-0-------0-----|
E|---------------|---------------|---------------|---------------|

e|---------0-----|---------0-----|---------0-----|---------0-----|
B|-3-------------|-3-------------|-3-------------|-3-------------|
G|-------2-----2-|-------2-----2-|-------2-----2-|-------2-----2-|
D|-----3-----3---|-----3-----3---|-----3-----3---|-----3-----3---|
A|-0-------0-----|-0-------0-----|-0-------0-----|-0-------0-----|
E|---------------|---------------|---------------|---------------|

Ending

e|-------------8-|-8------------||
B|---------6-----|-5------------||
G|-----5---------|-5------------||
D|-6-------------|-5------------||
A|---------------|--------------||
E|---------------|--------------||
Comments