Bright Eyes - A Perfect Sonnet Chords & Tabs

 

A Perfect Sonnet Chords & Tabs

Bright Eyes Chords & Tabs

Version: 1 Type: Tab 0 ratings
1 star 2 stars 3 stars 4 stars 5 stars
comments

A Perfect Sonnet Tab

   
##################################################################################
# This file is the author's own work and represents their interpretation of the  #
# song. You may only use this file for private study, scholarship, or research.  #
##################################################################################

Band: Bright Eyes
Song: A perfect Sonnet
Tabber: JOrdan Smith..!>.

Intro: C is strummed lots of times
--0-------|
--1-------|
--0-------|
--2-------|
--3-------|
----------|
Verse: "Latly i've been wishing i had one desire"
-0-h3---0----0----3---------------------|
-1------0----1----1---------------------|
-0------0----2----0---------------------|
-2------2----2----0---------------------|
-3------2----0--------------------------|
----------------------------------------|

Chorus:
-1---3----0-------------|
-1---3----1-------------|
-2---0----2-------------|
-3---0----2-------------|
-3---2----0-------------|
-1---3------------------|
[ Tab from: http://www.guitartabs.cc/tabs/b/bright_eyes/a_perfect_sonnet_tab.html ]
Ending:
--1-1-1-1-1-1-0--0-h3-------|
--1-1-1-1-1-1-0--1----------|
--1-1-1-1-1-1-0--0----------|
-----------------2----------|
-----------------3----------|
----------------------------|

Song Structure:
Intro
Verse
Chorus
Verse
Chorus
Verse
Chorus
Verse
Ending

*******************************************************************************************************

*******************************************************************************************************


Date: Mon, 14 Oct 2002 21:52:08 -0400
From: Andy Gould 
Subject: b/bright_eyes/a_line_allows_progress.crd

Artist:  Bright Eyes
Title:  A line allows progress, a circle does not


Intro (slow, waltz-type rhythm)

E--------------------------------------------------------
B---------2--2----2--2---2--2--2--2-----2----2-----------
G--------2--2---2--2---2--2---2--2----2-----2------------
D--------------------------------------------------------
A------4------4-------3-------3------2----2----2h0-------
E---------------------------------------------------2--2-


Pre verse

Bm Bm Bm F#7       (define F#7:   242322)

Verse 

Bm  G  D  F#7

Chorus (or whatever you want to call it)

G  A  G  F#7
Comments