Bright Eyes - A Line Allows Progress A Circle Does Not Chords & Tabs

 

A Line Allows Progress A Circle Does Not Chords & Tabs

Bright Eyes Chords & Tabs

Version: 2 Type: Tab 0 ratings
1 star 2 stars 3 stars 4 stars 5 stars
comments

A Line Allows Progress A Circle Does Not Tab

   
Bm   G  D  F#7  G! D!  F#
--2---3------0---3---2--2------------------|
--3---3--7---2---3---3--2------------------|
--4---4--7---3---0---2--3------------------|
--4---5--7---4---0---0--4------------------|
--2---5--5-------2------4------------------|
------3--5-------3------2------------------|

intro:
---------------------------|
-----2------x--------------|
----2-2----2-2--2-2--------|
-----------------4-4-------|
--4------3-----2-----------|
---------------------2-x-2-|

---------------------------|
-----2------2--------------|
----2-2----2-2--2-2--------|  2 more times w/ vox
-----------------4-4-------|
--4------3-----2-----------|
---------------------2-x-2-|

off the hook latin part:
[ Tab from: http://www.guitartabs.cc/tabs/b/bright_eyes/a_line_allows_progress_a_circle_does_not_tab_ver_2.html ]
 Bm BmBmBm Bm BmBmBm Bm BmBmBm     F# F# F#
--2---------------------------------------------|
--3---------------------------------2-----------|
--4---------------------------------3-----------|
--4---------------------------------4-----------|
--2---------------------------------4-----------|
------------------------------------2-----------|

Verse chord sequence:

Bm - G - D - F#7 (2x with strummy feel) and
when Conor enters (2x more with mad latin bombast)

Next part after:
"...slow down of STOP"
                  G! - D! -G! - F#
                  G! - D! - F#7 -F#7
                 "...all the weight your losing."

back to verse music and other part.
Comments