Briggs - Top 40 Chords & Tabs

 

Top 40 Chords & Tabs

Briggs Chords & Tabs

Version: 1 Type: Tab 0 ratings
1 star 2 stars 3 stars 4 stars 5 stars
comments

Top 40 Tab

Top 40 							\ and /=slide
The Briggs
Leaving the ways
[ Tab from: http://www.guitartabs.cc/tabs/b/briggs/top_40_tab.html ]
Intro(some weird effect with this)
E-/12-12\---/12-12\--------------------------------------------|
B--------------------------------------------------------------|
G--------------------------------------------------------------|
D--------------------------------------------------------------|
A--------------------------------------------------------------|
E--------------------------------------------------------------|
verse -	palm mute these
E-7----10-12-10-10 12------------------------------------------|
B-7------------------------------------------------------------|
G-8------------------------------------------------------------|
D-9------------------------------------------------------------|
A-9------------------------------------------------------------|
E-7------------------------------------------------------------|
 Chorus				  2nd time end with
E-7----------------------------- ------------------------------|
B-7----------------------------- ------------------------------|
G-8--99999-------------99999---- -9--7-5-----------------------|
D-9--99999-55555-77777-99999-9-- -9--7-5-7-5-------------------|x2
A-9--77777-55555-77777-77777-9-- -7--5-3-7-5-------------------|
E-7--------33333-55555-------7-- --------5-3-------------------|

verse again

Chorus again

filler deal		altrnate pick these fast
E------------------- ------------------------------------------|
B------------------- ------------------------------------------|
G-999-777-666-444--- -999-121212-141414-161616-181818-999------|
D-xxx-xxx-xxx-xxx-2x -xxx--x-x-x--x-x-x--x-x-x--x-x-x-xxx------|
A-777-555-444-222--- -777-101010-121212-141414-161616-777------|
E------------------- ------------------------------------------|

do intro again

chorus agian

rate it
Comments