Briggs - Song For Us Chords & Tabs

 

Song For Us Chords & Tabs

Briggs Chords & Tabs

Version: 1 Type: Tab 0 ratings
1 star 2 stars 3 stars 4 stars 5 stars
comments

Song For Us Tab

Song for us
The Briggs
[ Tab from: http://www.guitartabs.cc/tabs/b/briggs/song_for_us_tab.html ]
Intro-alternate pick this
E--------------------------------------------------------------|
B--------------------------------------------------------------|
G--------------------------------------------------------------|
D--------------------x3 end on---------------------------------|
A-333333-0-1-11------------------------------------------------|
E---------------1111-----------3-------------------------------|
verse
E-----------------------------------------------------------------|
B-----------------------------------------------------------------|
G---5-------------------------------------------------------------|
D-3-5-7-5---------------------------------------------------------|
A-3-3-7-5---------------------------------------------------------|
E-1---5-3---------------------------------------------------------|
Chorus-THIS IS A SONG FOR US! WOAH-OH!
E------------------------------------------------------------|
B------------------------------------------------------------|
G----5---5---------------------------------------------------|
D-3--5-3-5-3-5-----------------------------------------------|strum each chord a couple of times
A-3--3-3-3-3-5-----------------------------------------------|
E-1----1---1-3-----------------------------------------------|
Solo(all i can figure out)
E------------------------------------------------------------|
B------------------------------------------------------------|
G------------------------------------------------------------|
D------------------------------------------------------------|
A-3-3333-0-1-1-0-----------------------33-3h5-33-------------|
E---------------1-11-33333-3h5-111-3h5-----------------------|

thats about it, sorry about the solo, i couldnt figure it all out
Comments