Briefs - Silver Bullet Chords & Tabs

 

Silver Bullet Chords & Tabs

Briefs Chords & Tabs

Version: 1 Type: Tab 0 ratings
1 star 2 stars 3 stars 4 stars 5 stars
comments

Silver Bullet Tab

   
-------------------------------------------------------------------------------
			     SILVER BULLET - The Briefs
-------------------------------------------------------------------------------

this band is awesome. check them out at http://www.thebriefs.com/

Tabbed by: Michael
Email: fivepercentrobot@yahoo.com

Tuning: Standard (EADGBe)

(0:00)
e|-------------|
B|-------------|
G|---------7-9-|
D|-7-7-7-7-7-9-|
A|-7-7-7-7-5-7-|
E|-5-5-5-5-----| x4

(0:05)
e|---------------------------------------------------------|
B|---------------------------------------------------------|
G|-----------------9-9-9-9-9-9-9-9-7-7-7-7-7-7-7-7-----9-9-|
D|-7-7-7-7-7-7-7-7-9-9-9-9-9-9-9-9-7-7-7-7-7-7-7-7-7-7-9-9-|
A|-7-7-7-7-7-7-7-7-7-7-7-7-7-7-7-7-5-5-5-5-5-5-5-5-7-7-7-7-|
E|-5-5-5-5-5-5-5-5---------------------------------5-5-----|
 "when i think of you..."

(0:10:
e|-----------------------------------------------------------------|
B|-----------------------------------------------------------------|
G|-----------------9-9-9-9-9-9-9-9-7-7-----9-9-9-9-7-7-----9-9-9-9-|
D|-7-7-7-7-7-7-7-7-9-9-9-9-9-9-9-9-7-7-7-7-9-9-9-9-7-7-7-7-9-9-9-9-|
A|-7-7-7-7-7-7-7-7-7-7-7-7-7-7-7-7-5-5-7-7-7-7-7-7-5-5-7-7-7-7-7-7-|
E|-5-5-5-5-5-5-5-5---------------------5-5-------------5-5---------|
 "that old time..."		 "kill bob seger"

(0:18)
e|-------------|
B|-------------|
G|---------7-9-|
D|-7-7-7-7-7-9-|
A|-7-7-7-7-5-7-|
E|-5-5-5-5-----| x2

(0:20)
e|---------------------------------------------------------|
B|---------------------------------------------------------|
G|-----------------9-9-9-9-9-9-9-9-7-7-7-7-7-7-7-7-----9-9-|
D|-7-7-7-7-7-7-7-7-9-9-9-9-9-9-9-9-7-7-7-7-7-7-7-7-7-7-9-9-|
A|-7-7-7-7-7-7-7-7-7-7-7-7-7-7-7-7-5-5-5-5-5-5-5-5-7-7-7-7-|
E|-5-5-5-5-5-5-5-5---------------------------------5-5-----|
 "i like to take your records..."
[ Tab from: http://www.guitartabs.cc/tabs/b/briefs/silver_bullet_tab.html ]
(0:26)
e|-----------------------------------------------------------------|
B|-----------------------------------------------------------------|
G|-----------------9-9-9-9-9-9-9-9-7-7-----9-9-9-9-7-7-----9-9-9-9-|
D|-7-7-7-7-7-7-7-7-9-9-9-9-9-9-9-9-7-7-7-7-9-9-9-9-7-7-7-7-9-9-9-9-|
A|-7-7-7-7-7-7-7-7-7-7-7-7-7-7-7-7-5-5-7-7-7-7-7-7-5-5-7-7-7-7-7-7-|
E|-5-5-5-5-5-5-5-5---------------------5-5-------------5-5---------|
 "you think..."		 	  "kill bob segar"

(0:33)
e|-------------|
B|-------------|
G|---------7-9-|
D|-7-7-7-7-7-9-|
A|-7-7-7-7-5-7-|
E|-5-5-5-5-----| x4
 "kill..."

(0:39)
e|---------------------------------------------------------|
B|---------------------------------------------------------|
G|-----------------9---------------7-7-7-7-7-7-7-7-----9-9-|
D|-7---------------9---------------7-7-7-7-7-7-7-7-7-7-9-9-|
A|-7---------------7---------------5-5-5-5-5-5-5-5-7-7-7-7-|
E|-5-----------------------------------------------5-5-----|
 "when i think of you..."

(0:44)
e|-----------------------------------------------------------------|
B|-----------------------------------------------------------------|
G|-----------------9-9-9-9-9-9-9-9-7-7-----9-9-9-9-7-7-----9-9-9-9-|
D|-7-7-7-7-7-7-7-7-9-9-9-9-9-9-9-9-7-7-7-7-9-9-9-9-7-7-7-7-9-9-9-9-|
A|-7-7-7-7-7-7-7-7-7-7-7-7-7-7-7-7-5-5-7-7-7-7-7-7-5-5-7-7-7-7-7-7-|
E|-5-5-5-5-5-5-5-5---------------------5-5-------------5-5---------|
 "that old time..."		 "kill bob seger"

(0:52)
e|-----------------|
B|-----------------|
G|-7-7-----9-9-9-9-|
D|-7-7-7-7-9-9-9-9-|
A|-5-5-7-7-7-7-7-7-|
E|-----5-5---------|
 "kill bob seger"

(0:55)
e|-------------|
B|-------------|
G|---------7-9-|
D|-7-7-7-7-7-9-|
A|-7-7-7-7-5-7-|
E|-5-5-5-5-----| x7
 "kill..."

e|---|
B|---|
G|---|
D|-7-|
A|-7-|
E|-5-|

===============================================================================
Comments