Briefs - Shoplifting At Macys Chords & Tabs

 

Shoplifting At Macys Chords & Tabs

Briefs Chords & Tabs

Version: 1 Type: Tab 0 ratings
1 star 2 stars 3 stars 4 stars 5 stars
comments

Shoplifting At Macys Tab

Greggo Pogo tab

The Briefs - Shoplifting at Macys

I pretty much gave you the main parts and the chords. Its not hard to figure out timing 
the counts. Only reason I dont tab out the strum parts is because it would be a waste of 
time and sanity.


----------------------------------------------|
-----------------2---------6--------10--------|
-4-4-4-2-4-4-2-4---4-0---7---7----11---11-----|
-----------------------8--------12------------|
----------------------------------------------|
----------------------------------------------|

--------------------------------------10------|
-----------------2---------6--------10--------|
-4-4-4-2-4-4-2-4---4-0---7---7----11----------|
---------------------- 8--------12------------|
----------------------------------------------|
----------------------------------------------|
[ Tab from: http://www.guitartabs.cc/tabs/b/briefs/shoplifting_at_macys_tab.html ]
----------------------------------------------|
-----------------2---------6--------10--------|
-4-4-4-2-4-4-2-4---4-0---7---7----11---11-----|
-----------------------8--------12------------|
----------------------------------------------|
----------------------------------------------|

--------------------------------10--9---8-----|
-----------------2---------6----10--9---8-----|
-4-4-4-2-4-4-2-4---4-0---7---7--11--10--9-----|
-----------------------8--------12--11--10----|
----------------------------------------------|
----------------------------------------------|


--3----8--7---| verse
--3----8--7---|
--4----9--8---|
--5----10-9---|
--5----10-9---|
--3----8--7---| 1st and 3rd time
 (1x) (strum)

--3----8--10--|
--3----8--10--|
--4----9--11--|
--5----10-12--|
--5----10-12--|
--3----8--10--| 2nd and 4th time
 (1X)  (Strum)

-8---5---8---5--5--------------------------..
-8---5---8---5--5--------------------------..
-9---6---9---6--7--------------------------..
-10--7---10--7--7--------------------------..
-10--7---10--7--5--------------------------..
-8---5---8---5--- I GOT CAUGHT SHOPLIFTIN--..

(Listen for count and timing)

They say son your quite moronic

-8--7-8--7-10----|
-8--7-8--7-10----|
-9--8-9--8-11----|
-10-9-10-9-12----|
-10-9-10-9-12----|
-8--7-8--7-10----|
Comments