Briefs - New Shoes Chords & Tabs

 

New Shoes Chords & Tabs

Briefs Chords & Tabs

Version: 1 Type: Tab

New Shoes Tab

The Briefs 
"New Shoes"
[ Tab from: http://www.guitartabs.cc/tabs/b/briefs/new_shoes_tab.html ]
Intro:
|---------------------------------------------------------|
|---------------------------------------------------------|
|-4-4-4-4-5-5-6-7-8-8-8-8-----10--------------------------|
|-5-5-5-5-5-5-6-7-8-8-8-8-8-8-10--------------------------|
|-5-5-5-5-3-3-4-5-6-6-6-6-8-8-8---------------------------|
|-3-3-3-3-----------------6-6-----------------------------|

Verse:
|----------------------------------------------|
|----------------------------------------------|
|-4-4-4-4-5-5-5-5-4-4-4-4-5-5-5-5--------------|
|-5-5-5-5-5-5-5-5-5-5-5-5-5-5-5-5--------------|
|-5-5-5-5-3-3-3-3-5-5-5-5-3-3-3-3--------------|
|-3-3-3-3---------3-3-3-3----------------------|