Brides Of Destruction - I Got A Gun Chords & Tabs

 

I Got A Gun Chords & Tabs

Brides Of Destruction Chords & Tabs

Version: 1 Type: Tab 0 ratings
1 star 2 stars 3 stars 4 stars 5 stars
comments

I Got A Gun Tab

   
I Got A Gun- Brides Of Destruction

Tuning- Standard(EADGBE)

Tabbed by: SquirrelMasta225
E-mail: Sixx4President@aol.com

Intro(semi-distorted guitar)
e|--------------------------------------------|(6-8x)
B|--------------------------------------------|
G|-------3-------------3----------------------|
D|-----5---5---------5---5--------------------|
A|---5-------5-3---5-------5-3----------------|
E|-3-------------3-------------3--------------|

Chorus(extremely heavy distortion)
e|---------------------------------------------
B|---------------------------------------------
G|---------------------------------------------
D|-----5-----5-----5-----5-----5-5-8888888888--
A|-----5-----5-----5-----5-----5-5-6666666666--
E|-3-3---3-3---3-3---3-3---3-3-----------------

e|-----------------------------------------------|
B|-----------------------------------------------|
G|-----------------------------------------------|
D|-----5-----5-----5-----5-----5-5-88888866-5-3--|
A|-----5-----5-----5-----5-----5-5-66666644-3-1--|
E|-3-3---3-3---3-3---3-3---3-3-------------------|

Verse(semi-distorted guitar)
e|--------------------------------------------|(4-5x)
B|--------------------------------------------|
G|-------3-------------3----------------------|
D|-----5---5---------5---5--------------------|
A|---5-------5-3---5-------5-3----------------|
E|-3-------------3-------------3--------------|

Chorus(extremely heavy distortion)
e|---------------------------------------------
B|---------------------------------------------
G|---------------------------------------------
D|-----5-----5-----5-----5-----5-5-8888888888--
A|-----5-----5-----5-----5-----5-5-6666666666--
E|-3-3---3-3---3-3---3-3---3-3-----------------
[ Tab from: http://www.guitartabs.cc/tabs/b/brides_of_destruction/i_got_a_gun_tab.html ]
e|-----------------------------------------------|}
B|-----------------------------------------------|}
G|-----------------------------------------------|}
D|-----5-----5-----5-----5-----5-5-88888866-5-3--|}
A|-----5-----5-----5-----5-----5-5-66666644-3-1--|}
E|-3-3---3-3---3-3---3-3---3-3-------------------|}

Bridge(semi-distorted guitar)
e|---------------------------------------------|(x6)
B|---------------------------------------------|
G|---------------------------------------------|
D|-----7-----7-----7-----7--5555555555555555---|
A|-6-6---6-6---5-5---5-5----5555555555555555---|
E|---------------------------------------------|


Chorus(extremely heavy distortion)
e|---------------------------------------------
B|---------------------------------------------
G|---------------------------------------------
D|-----5-----5-----5-----5-----5-5-8888888888--
A|-----5-----5-----5-----5-----5-5-6666666666--
E|-3-3---3-3---3-3---3-3---3-3-----------------

e|-----------------------------------------------|}(repeat whole chorus 3x)
B|-----------------------------------------------|}
G|-----------------------------------------------|}
D|-----5-----5-----5-----5-----5-5-88888866-5-3--|}
A|-----5-----5-----5-----5-----5-5-66666644-3-1--|}
E|-3-3---3-3---3-3---3-3---3-3-------------------|}

Outro(same distortion as chorus)

e|-----------------------------------
B|-----------------------------------
G|-----------------------------------
D|-----5-----5-----5-----5-----5-5---
A|-----5-----5-----5-----5-----5-5---
E|-3-3---3-3---3-3---3-3---3-3-------

e|--------------------|
B|--------------------|
G|--------------------|
D|-----5-----5-----5--|
A|-----5-----5-----5--|
E|-3-3---3-3---3-3----|

Notation:

}=repeat whole set
/=slide up
\=slide down
~=vibrato

Sorry...no solo yet. I will try to figure it out...but it is extremely tough because
of the delay effects used in it.

Well, enjoy!

SquirrelMasta225 \m/(-_-)\m/
Comments