Brides Of Destruction - I Dont Care Chords & Tabs

 

I Dont Care Chords & Tabs

Brides Of Destruction Chords & Tabs

Version: 3 Type: Tab 0 ratings
1 star 2 stars 3 stars 4 stars 5 stars
comments

I Dont Care Tab

   
-----------------------------------------------------------------------------
			     I DON'T CARE - Brides of Destruction
-----------------------------------------------------------------------------
Tabbed by:Dustnrails
Email:

Tuning:Standard


Intro / Chorus  (3 x)
e|-------------------------------------------------B-----------------------|
B|-------------------------------------------------^-----------------------|
G|--7-7-7-7-7-5-------------3-3-3-3-3-5\6-5--5-3-5-5-3---------------------|
D|--7-7-7-7-7-5-5-5-5-5-5-3-3-3-3-3-3-5\6-5--5-3-5-5-3---------------------|
A|--5-5-5-5-5-3-5-5-5-5-5-3-1-1-1-1-1-3\4-3--------------------------------|
E|--------------3-3-3-3-3-1------------------------------------------------|
	
e|-------------------------------------------------------------------------|
B|-------------------------------------------------------------------------|
G|--7-7-7-7-7-5-------------3-3-3-3-3-5\6-5--------------------------------|
D|--7-7-7-7-7-5-5-5-5-5-5-3-3-3-3-3-3-5\6-5--5\6/5-5\6/5-5\6/5-5\6/5-5\6/--|
A|--5-5-5-5-5-3-5-5-5-5-5-3-1-1-1-1-1-3\4-3--------------------------------|
E|--------------3-3-3-3-3-1------------------------------------------------|

Verse
_________Well your all spaced out like a UFO			(x2)
e|-------------------------------------------------------------------------|
B|-------------------------------------------------------------------------|
G|-------------------------------------------------------------------------|
D|--121212121212121212121212121212-------5-5-5-5-5-5-5---3-----------------|
A|--121212121212121212121212121212-------3-3-3-3-3-3-3---3-----------------|
E|--101010101010101010101010101010-------3-3-3-3-3-3-3---1-----------------|



____Strummin an electric, sippin antiseptic.........			
e|-------------------------------------------------------------------------|
B|-------------------------------------------------------------------------|
G|--5\7-7-7-7-7-7--5\7-7-7-7-7-7-------------------------------------------|
D|--5\7-7-7-7-7-7--5\7-7-7-7-7-7---5-5-5-5-5-5--3--------------------------|
A|--3\5-5-5-5-5-5--3\5-5-5-5-5-5---5-5-5-5-5-5--3--------------------------|
E|---------------------------------3-3-3-3-3-3--1--------------------------|
[ Tab from: http://www.guitartabs.cc/tabs/b/brides_of_destruction/i_dont_care_tab_ver_3.html ]
e|-------------------------------------------------------------------------|
B|-------------------------------------------------------------------------|
G|--5\7-7-7-7-7-7--5\7-7-7-7-7-7-------------------------------------------|
D|--5\7-7-7-7-7-7--5\7-7-7-7-7-7---5-5-5-5-5-5--3-----9+--9999888877776666-|
A|--3\5-5-5-5-5-5--3\5-5-5-5-5-5---5-5-5-5-5-5--3-----9+-------------------|
E|---------------------------------3-3-3-3-3-3--1--------------------------|



Chorus
________I don't care what I gotta do to love you...
e|-------------------------------------------------B-----------------------|
B|-------------------------------------------------^-----------------------|
G|--7-7-7-7-7-5-------------3-3-3-3-3-5\6-5--5-3-5-5-3---------------------|
D|--7-7-7-7-7-5-5-5-5-5-5-3-3-3-3-3-3-5\6-5--5-3-5-5-3---------------------|
A|--5-5-5-5-5-3-5-5-5-5-5-3-1-1-1-1-1-3\4-3--------------------------------|
E|--------------3-3-3-3-3-1------------------------------------------------|

etc..

Verse

Chorus
	

Intro to lead
e|-------------------------------------------------------------------------|
B|-------------------------------------------------------------------------|
G|-3----------------------3------------------------------------------------|
D|-3----------3-----------3----------3-------------------------------------|
A|-1----------3-----------1----------3-------------------------------------|
E|------------1----------------------1-------------------------------------|

e|-------------------------------------------------------------------------|
B|-------------------------------------------------------------------------|
G|-7777777777777777-5555555555555555-7777777777777777-5555555555555555-----|
D|-------------------------------------------------------------------------|
A|-------------------------------------------------------------------------|
E|-------------------------------------------------------------------------|

e|-------------------------------------------------------------------------|
B|-------------------------------------------------------------------------|
G|-7-7---6-6---5-5---4-4-----7-7-7-7-7-5-------------3-3-3-3-3-5\6-5-------|
D|---------------------------7-7-7-7-7-5-5-5-5-5-5-3-3-3-3-3-3-5\6-5-------|
A|---------------------------5-5-5-5-5-3-5-5-5-5-5-3-1-1-1-1-1-3\4-3-------|
E|---------------------------------------3-3-3-3-3-1-----------------------|

e|-------------------------------------------------------------------------|
B|-------------------------------------------------------------------------|
G|-pause-7-7-7-7-7-5-------------3-3-3-3-3-5\6-5---------------------------|
D|-------7-7-7-7-7-5-5-5-5-5-5-3-3-3-3-3-3-5\6-5-----pick slide//////////--|
A|-------5-5-5-5-5-3-5-5-5-5-5-3-1-1-1-1-1-3\4-3-----///////////////////---|
E|-------------------3-3-3-3-3-1-------------------------------------------|

finish with chorus




| /  slide up
| \  slide down
| h  hammer-on
| p  pull-off
| ~  vibrato
| +  harmonic
| x  Mute note
===========================================================================
Comments