Brides Of Destruction - I Dont Care Chords & Tabs

 

I Dont Care Chords & Tabs

Brides Of Destruction Chords & Tabs

Version: 2 Type: Tab 0 ratings
1 star 2 stars 3 stars 4 stars 5 stars
comments

I Dont Care Tab

i sent the first tab for i dont dont care and i was off a little just take all the stuff 
on the first one and go a whole step up
so the first part is
 intro/chorus                                         after a couple times
e --------------------------------------------)---------------------------|
B --------------------------------------------)---------------------------|
G --------------------------------------------)---------------------------|
D -99999--7-----------55555--78-7--5-7-9p7-7--)---78-7----910-9-1112-11---|
A -77777--5-77777--5--33333--56-5--3-5-7p5-5--)---56-5----78--7--910-9----|
E ----------55555--3--------------------------)---------------------------|
verse
e --------------------------------)-----------------------------------------|
B --------------------------------)-----------------------------------------|
G --------------------------------)-----------------------------------------|
D --------------------------------)--7h999999-7h999999----------------------|
A -77777--555555------------------)--5h777777-5h777777--77777--555555-------|
E -55555--333333------------------)---------------------55555--333333-------|
pre-chorus
e -------------------------------------------------------------------------|
B -------------------------------------------------------------------------|
G -------------------------------------------------------------------------|
D -------------------------------------------------------------------------|
A -------------------------------------------------------------------------|
E -7777-6666-5555-4444-----------------------------------------------------|

bridge
e ------------------------------------)-p-s-----------------------------------|
B ------------------------------------)-i-l-----------------------------------|
G -5^^^^^------------5^^^^------------)-c-i--10h121212121212------------------|
D -5^^^^----5^^^^^---5^^^^--5^^^^-----)-k-d------------------10h121212121212--|
A -3^^^^^---5^^^^^---3^^^^--5^^^^-----)---e-----------------------------------|
E ----------3^^^^^----------3^^^^-----)---------------------------------------|

e --------------------------------------------------------------------------|
B --------------------------------------------------------------------------|
G -10--10---9---9---8---8----7--7-------------------------------------------|
D ---12---12--11--11--10--10--9---9-----------------------------------------|
A --------------------------------------------------------------------------|
E --------------------------------------------------------------------------|
end on
e -------------------------------------------------------|
B -------------------------------------------------------|
G -------------------------------------------------------|
D -2^^^^^^^^---------------------------------------------|
A -2^^^^^^^^---------------------------------------------|
E -0^^^^^^^^---------------------------------------------|
[ Tab from: http://www.guitartabs.cc/tabs/b/brides_of_destruction/i_dont_care_tab_ver_2.html ]
Comments